999
FreeCAD v0.20 29410 (Git)
  0
SECTION
  2
HEADER
  9
$ACADVER
  1
AC1014
  9
$ACADMAINTVER
 70
     9
  9
$DWGCODEPAGE
  3
ANSI_1252
  9
$TEXTSTYLE
  7
STANDARD
  9
$DIMSTYLE
  2
STANDARD
  9
$DIMTXSTY
  7
STANDARD
  9
$CMLSTYLE
  2
STANDARD
  9
$LUNITS
 70
2
  9
$INSUNITS
 70
4
  9
$PEXTMAX
 10
50
 20
50
 30
50
  9
$PEXTMIN
 10
0
 20
0
 30
0
  9
$HANDSEED
  5
FFFF
  0
ENDSEC
  0
SECTION
  2
CLASSES
  0
CLASS
  1
ACDBDICTIONARYWDFLT
  2
AcDbDictionaryWithDefault
  3
ObjectDBX Classes
 90
        0
280
     0
281
     0
  0
CLASS
  1
XRECORD
  2
AcDbXrecord
  3
ObjectDBX Classes
 90
        0
280
     0
281
     0
  0
CLASS
  1
LWPOLYLINE
  2
AcDbPolyline
  3
ObjectDBX Classes
 90
        0
280
     0
281
     1
  0
ENDSEC
  0
SECTION
  2
TABLES
  0
TABLE
  2
VPORT
  5
20
330
0
100
AcDbSymbolTable
 70
     1
  0
VPORT
  5
21
330
20
100
AcDbSymbolTableRecord
100
AcDbViewportTableRecord
  2
*ACTIVE
 70
     0
  0
ENDTAB
  0
TABLE
  2
LTYPE
  5
22
330
0
100
AcDbSymbolTable
 70
     1
  0
LTYPE
  5
23
330
21
100
AcDbSymbolTableRecord
100
AcDbLinetypeTableRecord
  2
BYBLOCK
 70
     0
  3

 72
    65
 73
     0
 40
0.0
  0
LTYPE
  5
24
330
21
100
AcDbSymbolTableRecord
100
AcDbLinetypeTableRecord
  2
BYLAYER
 70
     0
  3

 72
    65
 73
     0
 40
0.0
  0
LTYPE
  5
25
330
21
100
AcDbSymbolTableRecord
100
AcDbLinetypeTableRecord
  2
CONTINUOUS
 70
     0
  3
Solid line
 72
    65
 73
     0
 40
0.0
  0
ENDTAB
  0
TABLE
  2
LAYER
  5
B35
330
0
100
AcDbSymbolTable
 70
3
  0
LAYER
  5
B36
330
B35
100
AcDbSymbolTableRecord
100
AcDbLayerTableRecord
  2
0
 70
   0
 62
   7
  6
CONTINUOUS
  0
LAYER
  5
B37
330
B35
100
AcDbSymbolTableRecord
100
AcDbLayerTableRecord
  2
none
 70
    0
 62
    7
  6
CONTINUOUS
  0
LAYER
  5
B38
330
B35
100
AcDbSymbolTableRecord
100
AcDbLayerTableRecord
  2
ShapeString
 70
    0
 62
    7
  6
CONTINUOUS
  0
ENDTAB
  0
TABLE
  2
STYLE
  5
70
330
0
100
AcDbSymbolTable
 70
     2
  0
STYLE
  5
71
330
70
100
AcDbSymbolTableRecord
100
AcDbTextStyleTableRecord
  2
STANDARD
 70
     0
 40
0.0
 41
1.0
 50
0.0
 71
     0
 42
2.5
  3
arial.ttf
  4

  0
STYLE
  5
72
330
70
100
AcDbSymbolTableRecord
100
AcDbTextStyleTableRecord
  2
ANNOTATIVE
 70
     0
 40
0.0
 41
1.0
 50
0.0
 71
     0
 42
2.5
  3
arial.ttf
  4

  0
ENDTAB
  0
TABLE
  2
VIEW
  5
73
330
0
100
AcDbSymbolTable
 70
     0
  0
ENDTAB
  0
TABLE
  2
UCS
  5
74
330
0
100
AcDbSymbolTable
 70
     0
  0
ENDTAB
  0
TABLE
  2
APPID
  5
75
330
0
100
AcDbSymbolTable
 70
     2
  0
APPID
  5
76
330
75
100
AcDbSymbolTableRecord
100
AcDbRegAppTableRecord
  2
ACAD
 70
     0
  0
APPID
  5
77
330
75
100
AcDbSymbolTableRecord
100
AcDbRegAppTableRecord
  2
ACADANNOTATIVE
 70
     0
  0
ENDTAB
  0
TABLE
  2
DIMSTYLE
  5
78
330
0
100
AcDbSymbolTable
 70
     2
  0
DIMSTYLE
105
79
330
78
100
AcDbSymbolTableRecord
100
AcDbDimStyleTableRecord
  2
STANDARD
 70
     0
  3

  4

  5

  6

  7

 40
0.0
 41
2.5
 42
0.625
 43
3.75
 44
1.25
 45
0.0
 46
0.0
 47
0.0
 48
0.0
140
2.5
141
2.5
142
0.0
143
0.03937007874016
144
1.0
145
0.0
146
1.0
147
0.625
 71
     0
 72
     0
 73
     0
 74
     0
 75
     0
 76
     0
 77
     1
 78
     8
170
     0
171
     3
172
     1
173
     0
174
     0
175
     0
176
     0
177
     0
178
     0
270
     2
271
     2
272
     2
273
     2
274
     3
340
71
275
     0
280
     0
281
     0
282
     0
283
     0
284
     8
285
     0
286
     0
287
     3
288
     0
  0
ENDTAB
  0
TABLE
  2
BLOCK_RECORD
  5
A01
330
0
100
AcDbSymbolTable
  70
5
  0
BLOCK_RECORD
  5
A02
330
A01
100
AcDbSymbolTableRecord
100
AcDbBlockTableRecord
  2
*MODEL_SPACE
  0
BLOCK_RECORD
  5
A03
330
A01
100
AcDbSymbolTableRecord
100
AcDbBlockTableRecord
  2
*PAPER_SPACE
  0
ENDTAB
  0
ENDSEC
  0
SECTION
  2
BLOCKS
  0
BLOCK
  5
A04
330
A02
100
AcDbEntity
  8
0
100
AcDbBlockBegin
  2
*MODEL_SPACE
 70
   0
 10
0
 20
0
 30
0
  3
*MODEL_SPACE
  1
 
  0
ENDBLK
  5
A05
330
A02
100
AcDbEntity
  8
0
100
AcDbBlockEnd
  0
BLOCK
  5
A06
330
A03
100
AcDbEntity
 67
1
  8
0
100
AcDbBlockBegin
  2
*PAPER_SPACE
 70
   0
 10
0
 20
0
 30
0
  3
*PAPER_SPACE
  1
 
  0
ENDBLK
  5
A07
330
A03
100
AcDbEntity
 67
    1
  8
0
100
AcDbBlockEnd
  0
ENDSEC
  0
SECTION
  2
ENTITIES
  0
SPLINE
  5
A08
330
A02
100
AcDbEntity
  8
ShapeString
100
AcDbSpline
210
0
220
0
230
1
 70
8
 71
2
 72
6
 73
3
 74
0
 40
0
 40
0
 40
0
 40
1
 40
1
 40
1
 10
-8.49149
 20
14.7077
 30
24.2542
 10
-7.56357
 20
13.1005
 30
21.6038
 10
-5.97365
 20
13.0934
 30
20.4597
  0
SPLINE
  5
A09
330
A02
100
AcDbEntity
  8
ShapeString
100
AcDbSpline
210
0
220
0
230
1
 70
8
 71
2
 72
6
 73
3
 74
0
 40
0
 40
0
 40
0
 40
1
 40
1
 40
1
 10
-8.34256
 20
19.8967
 30
30.5657
 10
-9.39271
 20
16.2687
 30
26.8284
 10
-8.49149
 20
14.7077
 30
24.2542
  0
SPLINE
  5
A0A
330
A02
100
AcDbEntity
  8
ShapeString
100
AcDbSpline
210
0
220
0
230
1
 70
8
 71
2
 72
6
 73
3
 74
0
 40
0
 40
0
 40
0
 40
1
 40
1
 40
1
 10
-3.64399
 20
27.8665
 30
37.0678
 10
-7.23847
 20
23.6175
 30
34.3792
 10
-8.34256
 20
19.8967
 30
30.5657
  0
SPLINE
  5
A0B
330
A02
100
AcDbEntity
  8
ShapeString
100
AcDbSpline
210
0
220
0
230
1
 70
8
 71
2
 72
6
 73
3
 74
0
 40
0
 40
0
 40
0
 40
1
 40
1
 40
1
 10
6.05981
 20
36.0591
 30
40.2712
 10
-0.169283
 20
32.4627
 30
40.2712
 10
-3.64399
 20
27.8665
 30
37.0678
  0
SPLINE
  5
A0C
330
A02
100
AcDbEntity
  8
ShapeString
100
AcDbSpline
210
0
220
0
230
1
 70
8
 71
2
 72
6
 73
3
 74
0
 40
0
 40
0
 40
0
 40
1
 40
1
 40
1
 10
14.1123
 20
39.1973
 30
38.4025
 10
11.3414
 20
39.1084
 30
40.2712
 10
6.05981
 20
36.0591
 30
40.2712
  0
SPLINE
  5
A0D
330
A02
100
AcDbEntity
  8
ShapeString
100
AcDbSpline
210
0
220
0
230
1
 70
8
 71
2
 72
6
 73
3
 74
0
 40
0
 40
0
 40
0
 40
1
 40
1
 40
1
 10
18.2584
 20
36.9043
 30
32.6059
 10
16.8832
 20
39.2863
 30
36.5339
 10
14.1123
 20
39.1973
 30
38.4025
  0
SPLINE
  5
A0E
330
A02
100
AcDbEntity
  8
ShapeString
100
AcDbSpline
210
0
220
0
230
1
 70
8
 71
2
 72
6
 73
3
 74
0
 40
0
 40
0
 40
0
 40
1
 40
1
 40
1
 10
18.7961
 20
32.528
 30
26.8093
 10
19.4267
 20
34.8809
 30
29.2691
 10
18.2584
 20
36.9043
 30
32.6059
  0
SPLINE
  5
A0F
330
A02
100
AcDbEntity
  8
ShapeString
100
AcDbSpline
210
0
220
0
230
1
 70
8
 71
2
 72
6
 73
3
 74
0
 40
0
 40
0
 40
0
 40
1
 40
1
 40
1
 10
17.9367
 20
29.9197
 30
24.197
 10
18.4574
 20
31.3921
 30
25.6462
 10
18.7961
 20
32.528
 30
26.8093
  0
SPLINE
  5
A10
330
A02
100
AcDbEntity
  8
ShapeString
100
AcDbSpline
210
0
220
0
230
1
 70
8
 71
2
 72
6
 73
3
 74
0
 40
0
 40
0
 40
0
 40
1
 40
1
 40
1
 10
16.6729
 20
26.6617
 30
21.0699
 10
17.4294
 20
28.4706
 30
22.7669
 10
17.9367
 20
29.9197
 30
24.197
  0
SPLINE
  5
A11
330
A02
100
AcDbEntity
  8
ShapeString
100
AcDbSpline
210
0
220
0
230
1
 70
8
 71
2
 72
6
 73
3
 74
0
 40
0
 40
0
 40
0
 40
1
 40
1
 40
1
 10
15.6074
 20
22.3619
 30
16.5127
 10
15.1602
 20
23.1366
 30
17.7902
 10
16.6729
 20
26.6617
 30
21.0699
  0
SPLINE
  5
A12
330
A02
100
AcDbEntity
  8
ShapeString
100
AcDbSpline
210
0
220
0
230
1
 70
8
 71
2
 72
6
 73
3
 74
0
 40
0
 40
0
 40
0
 40
1
 40
1
 40
1
 10
16.3394
 20
22.6304
 30
16.322
 10
15.9161
 20
22.386
 30
16.322
 10
15.6074
 20
22.3619
 30
16.5127
  0
SPLINE
  5
A13
330
A02
100
AcDbEntity
  8
ShapeString
100
AcDbSpline
210
0
220
0
230
1
 70
8
 71
2
 72
6
 73
3
 74
0
 40
0
 40
0
 40
0
 40
1
 40
1
 40
1
 10
20.1346
 20
26.6715
 30
18.6102
 10
17.8312
 20
23.4917
 30
16.322
 10
16.3394
 20
22.6304
 30
16.322
  0
SPLINE
  5
A14
330
A02
100
AcDbEntity
  8
ShapeString
100
AcDbSpline
210
0
220
0
230
1
 70
8
 71
2
 72
6
 73
3
 74
0
 40
0
 40
0
 40
0
 40
1
 40
1
 40
1
 10
24.515
 20
33.6561
 30
24.1208
 10
22.4582
 20
29.9094
 30
20.9555
 10
20.1346
 20
26.6715
 30
18.6102
  0
SPLINE
  5
A15
330
A02
100
AcDbEntity
  8
ShapeString
100
AcDbSpline
210
0
220
0
230
1
 70
8
 71
2
 72
6
 73
3
 74
0
 40
0
 40
0
 40
0
 40
1
 40
1
 40
1
 10
26.3163
 20
37.1936
 30
27.2097
 10
25.5536
 20
35.5816
 30
25.7606
 10
24.515
 20
33.6561
 30
24.1208
  0
SPLINE
  5
A16
330
A02
100
AcDbEntity
  8
ShapeString
100
AcDbSpline
210
0
220
0
230
1
 70
8
 71
2
 72
6
 73
3
 74
0
 40
0
 40
0
 40
0
 40
1
 40
1
 40
1
 10
27.6061
 20
40.1737
 30
29.9746
 10
27.0723
 20
38.8171
 30
28.678
 10
26.3163
 20
37.1936
 30
27.2097
  0
SPLINE
  5
A17
330
A02
100
AcDbEntity
  8
ShapeString
100
AcDbSpline
210
0
220
0
230
1
 70
8
 71
2
 72
6
 73
3
 74
0
 40
0
 40
0
 40
0
 40
1
 40
1
 40
1
 10
28.713
 20
42.5395
 30
32.1102
 10
27.9239
 20
41.0664
 30
30.8517
 10
27.6061
 20
40.1737
 30
29.9746
  0
SPLINE
  5
A18
330
A02
100
AcDbEntity
  8
ShapeString
100
AcDbSpline
210
0
220
0
230
1
 70
8
 71
2
 72
6
 73
3
 74
0
 40
0
 40
0
 40
0
 40
1
 40
1
 40
1
 10
30.5194
 20
45.5095
 30
34.4936
 10
29.5223
 20
44.0242
 30
33.3686
 10
28.713
 20
42.5395
 30
32.1102
  0
SPLINE
  5
A19
330
A02
100
AcDbEntity
  8
ShapeString
100
AcDbSpline
210
0
220
0
230
1
 70
8
 71
2
 72
6
 73
3
 74
0
 40
0
 40
0
 40
0
 40
1
 40
1
 40
1
 10
32.4858
 20
48.1556
 30
36.3623
 10
31.5098
 20
47.0063
 30
35.6377
 10
30.5194
 20
45.5095
 30
34.4936
  0
SPLINE
  5
A1A
330
A02
100
AcDbEntity
  8
ShapeString
100
AcDbSpline
210
0
220
0
230
1
 70
8
 71
2
 72
6
 73
3
 74
0
 40
0
 40
0
 40
0
 40
1
 40
1
 40
1
 10
34.1001
 20
49.6427
 30
37.0487
 10
33.4753
 20
49.3282
 30
37.1059
 10
32.4858
 20
48.1556
 30
36.3623
  0
SPLINE
  5
A1B
330
A02
100
AcDbEntity
  8
ShapeString
100
AcDbSpline
210
0
220
0
230
1
 70
8
 71
2
 72
6
 73
3
 74
0
 40
0
 40
0
 40
0
 40
1
 40
1
 40
1
 10
34.7247
 20
49.8645
 30
36.8771
 10
34.4831
 20
49.8638
 30
37.0487
 10
34.1001
 20
49.6427
 30
37.0487
  0
SPLINE
  5
A1C
330
A02
100
AcDbEntity
  8
ShapeString
100
AcDbSpline
210
0
220
0
230
1
 70
8
 71
2
 72
6
 73
3
 74
0
 40
0
 40
0
 40
0
 40
1
 40
1
 40
1
 10
33.9472
 20
47.766
 30
34.8369
 10
34.8248
 20
49.691
 30
36.5911
 10
34.7247
 20
49.8645
 30
36.8771
  0
SPLINE
  5
A1D
330
A02
100
AcDbEntity
  8
ShapeString
100
AcDbSpline
210
0
220
0
230
1
 70
8
 71
2
 72
6
 73
3
 74
0
 40
0
 40
0
 40
0
 40
1
 40
1
 40
1
 10
33.1032
 20
45.8758
 30
33.1017
 10
33.4884
 20
46.8382
 30
34.0169
 10
33.9472
 20
47.766
 30
34.8369
  0
SPLINE
  5
A1E
330
A02
100
AcDbEntity
  8
ShapeString
100
AcDbSpline
210
0
220
0
230
1
 70
8
 71
2
 72
6
 73
3
 74
0
 40
0
 40
0
 40
0
 40
1
 40
1
 40
1
 10
32.3598
 20
43.9512
 30
31.2521
 10
32.7181
 20
44.9135
 30
32.1864
 10
33.1032
 20
45.8758
 30
33.1017
  0
SPLINE
  5
A1F
330
A02
100
AcDbEntity
  8
ShapeString
100
AcDbSpline
210
0
220
0
230
1
 70
8
 71
2
 72
6
 73
3
 74
0
 40
0
 40
0
 40
0
 40
1
 40
1
 40
1
 10
31.6923
 20
40.4053
 30
27.3432
 10
31.7037
 20
42.0615
 30
29.3835
 10
32.3598
 20
43.9512
 30
31.2521
  0
SPLINE
  5
A20
330
A02
100
AcDbEntity
  8
ShapeString
100
AcDbSpline
210
0
220
0
230
1
 70
8
 71
2
 72
6
 73
3
 74
0
 40
0
 40
0
 40
0
 40
1
 40
1
 40
1
 10
31.7565
 20
34.661
 30
20.1928
 10
31.8985
 20
37.441
 30
23.5297
 10
31.6923
 20
40.4053
 30
27.3432
  0
SPLINE
  5
A21
330
A02
100
AcDbEntity
  8
ShapeString
100
AcDbSpline
210
0
220
0
230
1
 70
8
 71
2
 72
6
 73
3
 74
0
 40
0
 40
0
 40
0
 40
1
 40
1
 40
1
 10
31.0768
 20
29.2273
 30
13.9576
 10
31.6345
 20
31.8927
 30
16.8559
 10
31.7565
 20
34.661
 30
20.1928
  0
SPLINE
  5
A22
330
A02
100
AcDbEntity
  8
ShapeString
100
AcDbSpline
210
0
220
0
230
1
 70
8
 71
2
 72
6
 73
3
 74
0
 40
0
 40
0
 40
0
 40
1
 40
1
 40
1
 10
29.3846
 20
23.9182
 30
8.59958
 10
30.5192
 20
26.562
 30
11.0593
 10
31.0768
 20
29.2273
 30
13.9576
  0
SPLINE
  5
A23
330
A02
100
AcDbEntity
  8
ShapeString
100
AcDbSpline
210
0
220
0
230
1
 70
8
 71
2
 72
6
 73
3
 74
0
 40
0
 40
0
 40
0
 40
1
 40
1
 40
1
 10
26.4649
 20
18.6866
 30
4.21399
 10
28.2702
 20
21.286
 30
6.13984
 10
29.3846
 20
23.9182
 30
8.59958
  0
SPLINE
  5
A24
330
A02
100
AcDbEntity
  8
ShapeString
100
AcDbSpline
210
0
220
0
230
1
 70
8
 71
2
 72
6
 73
3
 74
0
 40
0
 40
0
 40
0
 40
1
 40
1
 40
1
 10
15.6231
 20
9.02
 30
5.25566e-06
 10
22.9616
 20
13.4881
 30
0.286024
 10
26.4649
 20
18.6866
 30
4.21399
  0
SPLINE
  5
A25
330
A02
100
AcDbEntity
  8
ShapeString
100
AcDbSpline
210
0
220
0
230
1
 70
8
 71
2
 72
6
 73
3
 74
0
 40
0
 40
0
 40
0
 40
1
 40
1
 40
1
 10
10.1818
 20
6.43347
 30
0.686444
 10
12.6598
 20
7.30911
 30
4.25878e-06
 10
15.6231
 20
9.02
 30
5.25566e-06
  0
SPLINE
  5
A26
330
A02
100
AcDbEntity
  8
ShapeString
100
AcDbSpline
210
0
220
0
230
1
 70
8
 71
2
 72
6
 73
3
 74
0
 40
0
 40
0
 40
0
 40
1
 40
1
 40
1
 10
5.87204
 20
5.42524
 30
2.51695
 10
7.72402
 20
5.56947
 30
1.37288
 10
10.1818
 20
6.43347
 30
0.686444
  0
SPLINE
  5
A27
330
A02
100
AcDbEntity
  8
ShapeString
100
AcDbSpline
210
0
220
0
230
1
 70
8
 71
2
 72
6
 73
3
 74
0
 40
0
 40
0
 40
0
 40
1
 40
1
 40
1
 10
2.82703
 20
5.67141
 30
4.99576
 10
4.02005
 20
5.28101
 30
3.66102
 10
5.87204
 20
5.42524
 30
2.51695
  0
SPLINE
  5
A28
330
A02
100
AcDbEntity
  8
ShapeString
100
AcDbSpline
210
0
220
0
230
1
 70
8
 71
2
 72
6
 73
3
 74
0
 40
0
 40
0
 40
0
 40
1
 40
1
 40
1
 10
1.16685
 20
6.91751
 30
7.72245
 10
1.6475
 20
6.085
 30
6.34957
 10
2.82703
 20
5.67141
 30
4.99576
  0
SPLINE
  5
A29
330
A02
100
AcDbEntity
  8
ShapeString
100
AcDbSpline
210
0
220
0
230
1
 70
8
 71
2
 72
6
 73
3
 74
0
 40
0
 40
0
 40
0
 40
1
 40
1
 40
1
 10
0.729416
 20
8.79249
 30
10.3538
 10
0.619442
 20
7.86565
 30
9.28601
 10
1.16685
 20
6.91751
 30
7.72245
  0
SPLINE
  5
A2A
330
A02
100
AcDbEntity
  8
ShapeString
100
AcDbSpline
210
0
220
0
230
1
 70
8
 71
2
 72
6
 73
3
 74
0
 40
0
 40
0
 40
0
 40
1
 40
1
 40
1
 10
1.37859
 20
10.6011
 30
12.1271
 10
0.852873
 20
9.74253
 30
11.4407
 10
0.729416
 20
8.79249
 30
10.3538
  0
SPLINE
  5
A2B
330
A02
100
AcDbEntity
  8
ShapeString
100
AcDbSpline
210
0
220
0
230
1
 70
8
 71
2
 72
6
 73
3
 74
0
 40
0
 40
0
 40
0
 40
1
 40
1
 40
1
 10
2.76511
 20
12.2032
 30
13.1186
 10
1.91778
 20
11.4828
 30
12.8326
 10
1.37859
 20
10.6011
 30
12.1271
  0
SPLINE
  5
A2C
330
A02
100
AcDbEntity
  8
ShapeString
100
AcDbSpline
210
0
220
0
230
1
 70
8
 71
2
 72
6
 73
3
 74
0
 40
0
 40
0
 40
0
 40
1
 40
1
 40
1
 10
4.55324
 20
13.4823
 30
13.4237
 10
3.62593
 20
12.9469
 30
13.4237
 10
2.76511
 20
12.2032
 30
13.1186
  0
SPLINE
  5
A2D
330
A02
100
AcDbEntity
  8
ShapeString
100
AcDbSpline
210
0
220
0
230
1
 70
8
 71
2
 72
6
 73
3
 74
0
 40
0
 40
0
 40
0
 40
1
 40
1
 40
1
 10
7.709
 20
14.4409
 30
12.3559
 10
6.46833
 20
14.588
 30
13.4237
 10
4.55324
 20
13.4823
 30
13.4237
  0
SPLINE
  5
A2E
330
A02
100
AcDbEntity
  8
ShapeString
100
AcDbSpline
210
0
220
0
230
1
 70
8
 71
2
 72
6
 73
3
 74
0
 40
0
 40
0
 40
0
 40
1
 40
1
 40
1
 10
9.53714
 20
13.2764
 30
9.61017
 10
8.94968
 20
14.2939
 30
11.2881
 10
7.709
 20
14.4409
 30
12.3559
  0
SPLINE
  5
A2F
330
A02
100
AcDbEntity
  8
ShapeString
100
AcDbSpline
210
0
220
0
230
1
 70
8
 71
2
 72
6
 73
3
 74
0
 40
0
 40
0
 40
0
 40
1
 40
1
 40
1
 10
9.13457
 20
10.901
 30
6.95974
 10
10.1847
 20
12.1548
 30
7.76059
 10
9.53714
 20
13.2764
 30
9.61017
  0
SPLINE
  5
A30
330
A02
100
AcDbEntity
  8
ShapeString
100
AcDbSpline
210
0
220
0
230
1
 70
8
 71
2
 72
6
 73
3
 74
0
 40
0
 40
0
 40
0
 40
1
 40
1
 40
1
 10
5.32257
 20
8.00638
 30
6.10169
 10
8.08447
 20
9.64721
 30
6.1589
 10
9.13457
 20
10.901
 30
6.95974
  0
SPLINE
  5
A31
330
A02
100
AcDbEntity
  8
ShapeString
100
AcDbSpline
210
0
220
0
230
1
 70
8
 71
2
 72
6
 73
3
 74
0
 40
0
 40
0
 40
0
 40
1
 40
1
 40
1
 10
8.95753
 20
7.6229
 30
3.03178
 10
6.66179
 20
7.12997
 30
4.06144
 10
5.32257
 20
8.00638
 30
6.10169
  0
SPLINE
  5
A32
330
A02
100
AcDbEntity
  8
ShapeString
100
AcDbSpline
210
0
220
0
230
1
 70
8
 71
2
 72
6
 73
3
 74
0
 40
0
 40
0
 40
0
 40
1
 40
1
 40
1
 10
13.753
 20
9.55904
 30
2.00212
 10
11.2734
 20
8.12748
 30
2.00212
 10
8.95753
 20
7.6229
 30
3.03178
  0
SPLINE
  5
A33
330
A02
100
AcDbEntity
  8
ShapeString
100
AcDbSpline
210
0
220
0
230
1
 70
8
 71
2
 72
6
 73
3
 74
0
 40
0
 40
0
 40
0
 40
1
 40
1
 40
1
 10
16.6248
 20
12.1267
 30
3.12712
 10
15.2183
 20
10.5592
 30
2.1928
 10
13.753
 20
9.55904
 30
2.00212
  0
SPLINE
  5
A34
330
A02
100
AcDbEntity
  8
ShapeString
100
AcDbSpline
210
0
220
0
230
1
 70
8
 71
2
 72
6
 73
3
 74
0
 40
0
 40
0
 40
0
 40
1
 40
1
 40
1
 10
19.2114
 20
15.7938
 30
5.81568
 10
18.0314
 20
13.6942
 30
4.06144
 10
16.6248
 20
12.1267
 30
3.12712
  0
SPLINE
  5
A35
330
A02
100
AcDbEntity
  8
ShapeString
100
AcDbSpline
210
0
220
0
230
1
 70
8
 71
2
 72
6
 73
3
 74
0
 40
0
 40
0
 40
0
 40
1
 40
1
 40
1
 10
21.3386
 20
20.722
 30
10.3919
 10
20.3847
 20
17.905
 30
7.58898
 10
19.2114
 20
15.7938
 30
5.81568
  0
SPLINE
  5
A36
330
A02
100
AcDbEntity
  8
ShapeString
100
AcDbSpline
210
0
220
0
230
1
 70
8
 71
2
 72
6
 73
3
 74
0
 40
0
 40
0
 40
0
 40
1
 40
1
 40
1
 10
22.8314
 20
26.656
 30
16.6653
 10
22.306
 20
23.5622
 30
13.214
 10
21.3386
 20
20.722
 30
10.3919
  0
SPLINE
  5
A37
330
A02
100
AcDbEntity
  8
ShapeString
100
AcDbSpline
210
0
220
0
230
1
 70
8
 71
2
 72
6
 73
3
 74
0
 40
0
 40
0
 40
0
 40
1
 40
1
 40
1
 10
19.3462
 20
23.1022
 30
14.7585
 10
20.7187
 20
24.4959
 30
15.5021
 10
22.8314
 20
26.656
 30
16.6653
  0
SPLINE
  5
A38
330
A02
100
AcDbEntity
  8
ShapeString
100
AcDbSpline
210
0
220
0
230
1
 70
8
 71
2
 72
6
 73
3
 74
0
 40
0
 40
0
 40
0
 40
1
 40
1
 40
1
 10
16.3811
 20
20.789
 30
14.0148
 10
17.9939
 20
21.7201
 30
14.0148
 10
19.3462
 20
23.1022
 30
14.7585
  0
SPLINE
  5
A39
330
A02
100
AcDbEntity
  8
ShapeString
100
AcDbSpline
210
0
220
0
230
1
 70
8
 71
2
 72
6
 73
3
 74
0
 40
0
 40
0
 40
0
 40
1
 40
1
 40
1
 10
13.3992
 20
19.6224
 30
14.7013
 10
14.628
 20
20.0081
 30
14.3008
 10
16.3811
 20
20.789
 30
14.0148
  0
SPLINE
  5
A3A
330
A02
100
AcDbEntity
  8
ShapeString
100
AcDbSpline
210
0
220
0
230
1
 70
8
 71
2
 72
6
 73
3
 74
0
 40
0
 40
0
 40
0
 40
1
 40
1
 40
1
 10
11.3856
 20
19.2461
 30
15.6737
 10
12.1704
 20
19.2368
 30
15.1017
 10
13.3992
 20
19.6224
 30
14.7013
  0
SPLINE
  5
A3B
330
A02
100
AcDbEntity
  8
ShapeString
100
AcDbSpline
210
0
220
0
230
1
 70
8
 71
2
 72
6
 73
3
 74
0
 40
0
 40
0
 40
0
 40
1
 40
1
 40
1
 10
10.0719
 20
19.6593
 30
17.1229
 10
10.594
 20
19.267
 30
16.2648
 10
11.3856
 20
19.2461
 30
15.6737
  0
SPLINE
  5
A3C
330
A02
100
AcDbEntity
  8
ShapeString
100
AcDbSpline
210
0
220
0
230
1
 70
8
 71
2
 72
6
 73
3
 74
0
 40
0
 40
0
 40
0
 40
1
 40
1
 40
1
 10
9.10911
 20
20.8148
 30
19.2394
 10
9.5497
 20
20.0516
 30
17.9809
 10
10.0719
 20
19.6593
 30
17.1229
  0
SPLINE
  5
A3D
330
A02
100
AcDbEntity
  8
ShapeString
100
AcDbSpline
210
0
220
0
230
1
 70
8
 71
2
 72
6
 73
3
 74
0
 40
0
 40
0
 40
0
 40
1
 40
1
 40
1
 10
8.70233
 20
24.0333
 30
23.5106
 10
8.34808
 20
22.1329
 30
21.4131
 10
9.10911
 20
20.8148
 30
19.2394
  0
SPLINE
  5
A3E
330
A02
100
AcDbEntity
  8
ShapeString
100
AcDbSpline
210
0
220
0
230
1
 70
8
 71
2
 72
6
 73
3
 74
0
 40
0
 40
0
 40
0
 40
1
 40
1
 40
1
 10
10.3061
 20
28.8905
 30
28.3729
 10
9.05658
 20
25.9337
 30
25.608
 10
8.70233
 20
24.0333
 30
23.5106
  0
SPLINE
  5
A3F
330
A02
100
AcDbEntity
  8
ShapeString
100
AcDbSpline
210
0
220
0
230
1
 70
8
 71
2
 72
6
 73
3
 74
0
 40
0
 40
0
 40
0
 40
1
 40
1
 40
1
 10
11.38
 20
31.4531
 30
30.7754
 10
10.9543
 20
30.3748
 30
29.7457
 10
10.3061
 20
28.8905
 30
28.3729
  0
SPLINE
  5
A40
330
A02
100
AcDbEntity
  8
ShapeString
100
AcDbSpline
210
0
220
0
230
1
 70
8
 71
2
 72
6
 73
3
 74
0
 40
0
 40
0
 40
0
 40
1
 40
1
 40
1
 10
12.083
 20
33.3081
 30
32.5678
 10
11.8259
 20
32.543
 30
31.8051
 10
11.38
 20
31.4531
 30
30.7754
  0
SPLINE
  5
A41
330
A02
100
AcDbEntity
  8
ShapeString
100
AcDbSpline
210
0
220
0
230
1
 70
8
 71
2
 72
6
 73
3
 74
0
 40
0
 40
0
 40
0
 40
1
 40
1
 40
1
 10
12.3752
 20
34.6177
 30
33.9788
 10
12.3536
 20
34.0964
 30
33.3496
 10
12.083
 20
33.3081
 30
32.5678
  0
SPLINE
  5
A42
330
A02
100
AcDbEntity
  8
ShapeString
100
AcDbSpline
210
0
220
0
230
1
 70
8
 71
2
 72
6
 73
3
 74
0
 40
0
 40
0
 40
0
 40
1
 40
1
 40
1
 10
12.1498
 20
35.5667
 30
35.3135
 10
12.3968
 20
35.1389
 30
34.608
 10
12.3752
 20
34.6177
 30
33.9788
  0
SPLINE
  5
A43
330
A02
100
AcDbEntity
  8
ShapeString
100
AcDbSpline
210
0
220
0
230
1
 70
8
 71
2
 72
6
 73
3
 74
0
 40
0
 40
0
 40
0
 40
1
 40
1
 40
1
 10
10.1181
 20
35.92
 30
37.2012
 10
11.7092
 20
36.3299
 30
36.572
 10
12.1498
 20
35.5667
 30
35.3135
  0
SPLINE
  5
A44
330
A02
100
AcDbEntity
  8
ShapeString
100
AcDbSpline
210
0
220
0
230
1
 70
8
 71
2
 72
6
 73
3
 74
0
 40
0
 40
0
 40
0
 40
1
 40
1
 40
1
 10
6.53128
 20
34.3579
 30
37.8305
 10
8.54717
 20
35.5218
 30
37.8305
 10
10.1181
 20
35.92
 30
37.2012
  0
SPLINE
  5
A45
330
A02
100
AcDbEntity
  8
ShapeString
100
AcDbSpline
210
0
220
0
230
1
 70
8
 71
2
 72
6
 73
3
 74
0
 40
0
 40
0
 40
0
 40
1
 40
1
 40
1
 10
1.24807
 20
30.7526
 30
37.144
 10
3.49436
 20
32.7279
 30
37.983
 10
6.53128
 20
34.3579
 30
37.8305
  0
SPLINE
  5
A46
330
A02
100
AcDbEntity
  8
ShapeString
100
AcDbSpline
210
0
220
0
230
1
 70
8
 71
2
 72
6
 73
3
 74
0
 40
0
 40
0
 40
0
 40
1
 40
1
 40
1
 10
-2.58032
 20
26.8156
 30
35.0084
 10
-0.978057
 20
28.789
 30
36.3051
 10
1.24807
 20
30.7526
 30
37.144
  0
SPLINE
  5
A47
330
A02
100
AcDbEntity
  8
ShapeString
100
AcDbSpline
210
0
220
0
230
1
 70
8
 71
2
 72
6
 73
3
 74
0
 40
0
 40
0
 40
0
 40
1
 40
1
 40
1
 10
-5.17405
 20
22.9748
 30
32.1101
 10
-4.18925
 20
24.8538
 30
33.7309
 10
-2.58032
 20
26.8156
 30
35.0084
  0
SPLINE
  5
A48
330
A02
100
AcDbEntity
  8
ShapeString
100
AcDbSpline
210
0
220
0
230
1
 70
8
 71
2
 72
6
 73
3
 74
0
 40
0
 40
0
 40
0
 40
1
 40
1
 40
1
 10
-6.7067
 20
19.5307
 30
28.9449
 10
-6.16553
 20
21.1073
 30
30.5085
 10
-5.17405
 20
22.9748
 30
32.1101
  0
SPLINE
  5
A49
330
A02
100
AcDbEntity
  8
ShapeString
100
AcDbSpline
210
0
220
0
230
1
 70
8
 71
2
 72
6
 73
3
 74
0
 40
0
 40
0
 40
0
 40
1
 40
1
 40
1
 10
-7.33808
 20
16.8999
 30
26.1419
 10
-7.23439
 20
17.9773
 30
27.4004
 10
-6.7067
 20
19.5307
 30
28.9449
  0
SPLINE
  5
A4A
330
A02
100
AcDbEntity
  8
ShapeString
100
AcDbSpline
210
0
220
0
230
1
 70
8
 71
2
 72
6
 73
3
 74
0
 40
0
 40
0
 40
0
 40
1
 40
1
 40
1
 10
-7.22135
 20
15.4873
 30
24.3114
 10
-7.42162
 20
15.8342
 30
24.8835
 10
-7.33808
 20
16.8999
 30
26.1419
  0
SPLINE
  5
A4B
330
A02
100
AcDbEntity
  8
ShapeString
100
AcDbSpline
210
0
220
0
230
1
 70
8
 71
2
 72
6
 73
3
 74
0
 40
0
 40
0
 40
0
 40
1
 40
1
 40
1
 10
-5.21793
 20
14.6243
 30
21.8135
 10
-6.64724
 20
14.4929
 30
22.6716
 10
-7.22135
 20
15.4873
 30
24.3114
  0
SPLINE
  5
A4C
330
A02
100
AcDbEntity
  8
ShapeString
100
AcDbSpline
210
0
220
0
230
1
 70
8
 71
2
 72
6
 73
3
 74
0
 40
0
 40
0
 40
0
 40
1
 40
1
 40
1
 10
-2.7672
 20
15.3609
 30
20.9746
 10
-3.77515
 20
14.779
 30
20.9746
 10
-5.21793
 20
14.6243
 30
21.8135
  0
SPLINE
  5
A4D
330
A02
100
AcDbEntity
  8
ShapeString
100
AcDbSpline
210
0
220
0
230
1
 70
8
 71
2
 72
6
 73
3
 74
0
 40
0
 40
0
 40
0
 40
1
 40
1
 40
1
 10
0.832634
 20
19.1351
 30
23.072
 10
-0.831288
 20
16.7099
 30
21.2606
 10
-2.7672
 20
15.3609
 30
20.9746
  0
SPLINE
  5
A4E
330
A02
100
AcDbEntity
  8
ShapeString
100
AcDbSpline
210
0
220
0
230
1
 70
8
 71
2
 72
6
 73
3
 74
0
 40
0
 40
0
 40
0
 40
1
 40
1
 40
1
 10
2.74321
 20
23.3678
 30
26.9428
 10
2.47012
 20
21.6993
 30
25.0741
 10
0.832634
 20
19.1351
 30
23.072
  0
SPLINE
  5
A4F
330
A02
100
AcDbEntity
  8
ShapeString
100
AcDbSpline
210
0
220
0
230
1
 70
8
 71
2
 72
6
 73
3
 74
0
 40
0
 40
0
 40
0
 40
1
 40
1
 40
1
 10
2.87374
 20
24.4453
 30
28.1822
 10
2.84506
 20
23.7966
 30
27.4004
 10
2.74321
 20
23.3678
 30
26.9428
  0
SPLINE
  5
A50
330
A02
100
AcDbEntity
  8
ShapeString
100
AcDbSpline
210
0
220
0
230
1
 70
8
 71
2
 72
6
 73
3
 74
0
 40
0
 40
0
 40
0
 40
1
 40
1
 40
1
 10
2.9654
 20
26.0091
 30
30.0508
 10
2.89574
 20
25.1055
 30
28.983
 10
2.87374
 20
24.4453
 30
28.1822
  0
SPLINE
  5
A51
330
A02
100
AcDbEntity
  8
ShapeString
100
AcDbSpline
210
0
220
0
230
1
 70
8
 71
2
 72
6
 73
3
 74
0
 40
0
 40
0
 40
0
 40
1
 40
1
 40
1
 10
3.19413
 20
28.5924
 30
33.0826
 10
3.03742
 20
27.7465
 30
32.1483
 10
2.9654
 20
26.0091
 30
30.0508
  0
SPLINE
  5
A52
330
A02
100
AcDbEntity
  8
ShapeString
100
AcDbSpline
210
0
220
0
230
1
 70
8
 71
2
 72
6
 73
3
 74
0
 40
0
 40
0
 40
0
 40
1
 40
1
 40
1
 10
3.74733
 20
29.6826
 30
34.036
 10
3.30384
 20
29.4266
 30
34.036
 10
3.19413
 20
28.5924
 30
33.0826
  0
SPLINE
  5
A53
330
A02
100
AcDbEntity
  8
ShapeString
100
AcDbSpline
210
0
220
0
230
1
 70
8
 71
2
 72
6
 73
3
 74
0
 40
0
 40
0
 40
0
 40
1
 40
1
 40
1
 10
4.86574
 20
29.0025
 30
32.3962
 10
4.29163
 20
29.9969
 30
34.036
 10
3.74733
 20
29.6826
 30
34.036
  0
SPLINE
  5
A54
330
A02
100
AcDbEntity
  8
ShapeString
100
AcDbSpline
210
0
220
0
230
1
 70
8
 71
2
 72
6
 73
3
 74
0
 40
0
 40
0
 40
0
 40
1
 40
1
 40
1
 10
5.52399
 20
26.9313
 30
29.3644
 10
5.31968
 20
28.2162
 30
31.0996
 10
4.86574
 20
29.0025
 30
32.3962
  0
SPLINE
  5
A55
330
A02
100
AcDbEntity
  8
ShapeString
100
AcDbSpline
210
0
220
0
230
1
 70
8
 71
2
 72
6
 73
3
 74
0
 40
0
 40
0
 40
0
 40
1
 40
1
 40
1
 10
5.67134
 20
24.488
 30
26.2373
 10
5.72163
 20
25.6578
 30
27.6483
 10
5.52399
 20
26.9313
 30
29.3644
  0
SPLINE
  5
A56
330
A02
100
AcDbEntity
  8
ShapeString
100
AcDbSpline
210
0
220
0
230
1
 70
8
 71
2
 72
6
 73
3
 74
0
 40
0
 40
0
 40
0
 40
1
 40
1
 40
1
 10
4.86613
 20
22.0651
 30
23.8157
 10
5.57459
 20
23.4917
 30
25.0741
 10
5.67134
 20
24.488
 30
26.2373
  0
SPLINE
  5
A57
330
A02
100
AcDbEntity
  8
ShapeString
100
AcDbSpline
210
0
220
0
230
1
 70
8
 71
2
 72
6
 73
3
 74
0
 40
0
 40
0
 40
0
 40
1
 40
1
 40
1
 10
3.02639
 20
19.1529
 30
21.5275
 10
4.15766
 20
20.6386
 30
22.5572
 10
4.86613
 20
22.0651
 30
23.8157
  0
SPLINE
  5
A58
330
A02
100
AcDbEntity
  8
ShapeString
100
AcDbSpline
210
0
220
0
230
1
 70
8
 71
2
 72
6
 73
3
 74
0
 40
0
 40
0
 40
0
 40
1
 40
1
 40
1
 10
0.543029
 20
16.3779
 30
19.8686
 10
1.91528
 20
17.6789
 30
20.4979
 10
3.02639
 20
19.1529
 30
21.5275
  0
SPLINE
  5
A59
330
A02
100
AcDbEntity
  8
ShapeString
100
AcDbSpline
210
0
220
0
230
1
 70
8
 71
2
 72
6
 73
3
 74
0
 40
0
 40
0
 40
0
 40
1
 40
1
 40
1
 10
-2.13261
 20
14.4014
 30
19.3347
 10
-0.815742
 20
15.1001
 30
19.2585
 10
0.543029
 20
16.3779
 30
19.8686
  0
SPLINE
  5
A5A
330
A02
100
AcDbEntity
  8
ShapeString
100
AcDbSpline
210
0
220
0
230
1
 70
8
 71
2
 72
6
 73
3
 74
0
 40
0
 40
0
 40
0
 40
1
 40
1
 40
1
 10
-5.97365
 20
13.0934
 30
20.4597
 10
-4.37025
 20
13.1096
 30
19.3347
 10
-2.13261
 20
14.4014
 30
19.3347
  0
SPLINE
  5
A5B
330
A02
100
AcDbEntity
  8
ShapeString
100
AcDbSpline
210
0
220
0
230
1
 70
8
 71
2
 72
6
 73
3
 74
0
 40
0
 40
0
 40
0
 40
1
 40
1
 40
1
 10
35.0693
 20
27.154
 30
8.54238
 10
35.3563
 20
26.6568
 30
7.72246
 10
35.9208
 20
26.9827
 30
7.72246
  0
SPLINE
  5
A5C
330
A02
100
AcDbEntity
  8
ShapeString
100
AcDbSpline
210
0
220
0
230
1
 70
8
 71
2
 72
6
 73
3
 74
0
 40
0
 40
0
 40
0
 40
1
 40
1
 40
1
 10
37.3981
 20
32.1986
 30
13.1186
 10
35.8
 20
29.3334
 30
10.7161
 10
35.0693
 20
27.154
 30
8.54238
  0
SPLINE
  5
A5D
330
A02
100
AcDbEntity
  8
ShapeString
100
AcDbSpline
210
0
220
0
230
1
 70
8
 71
2
 72
6
 73
3
 74
0
 40
0
 40
0
 40
0
 40
1
 40
1
 40
1
 10
41.3459
 20
38.0237
 30
17.5042
 10
38.9962
 20
35.0637
 30
15.5212
 10
37.3981
 20
32.1986
 30
13.1186
  0
SPLINE
  5
A5E
330
A02
100
AcDbEntity
  8
ShapeString
100
AcDbSpline
210
0
220
0
230
1
 70
8
 71
2
 72
6
 73
3
 74
0
 40
0
 40
0
 40
0
 40
1
 40
1
 40
1
 10
46.6082
 20
43.7136
 30
20.7839
 10
43.6889
 20
40.9952
 30
19.5064
 10
41.3459
 20
38.0237
 30
17.5042
  0
SPLINE
  5
A5F
330
A02
100
AcDbEntity
  8
ShapeString
100
AcDbSpline
210
0
220
0
230
1
 70
8
 71
2
 72
6
 73
3
 74
0
 40
0
 40
0
 40
0
 40
1
 40
1
 40
1
 10
52.8872
 20
48.3409
 30
22.0233
 10
49.5208
 20
46.4435
 30
22.0805
 10
46.6082
 20
43.7136
 30
20.7839
  0
SPLINE
  5
A60
330
A02
100
AcDbEntity
  8
ShapeString
100
AcDbSpline
210
0
220
0
230
1
 70
8
 71
2
 72
6
 73
3
 74
0
 40
0
 40
0
 40
0
 40
1
 40
1
 40
1
 10
62.0024
 20
47.7297
 30
14.7585
 10
59.459
 20
52.1351
 30
22.0233
 10
52.8872
 20
48.3409
 30
22.0233
  0
SPLINE
  5
A61
330
A02
100
AcDbEntity
  8
ShapeString
100
AcDbSpline
210
0
220
0
230
1
 70
8
 71
2
 72
6
 73
3
 74
0
 40
0
 40
0
 40
0
 40
1
 40
1
 40
1
 10
62.4404
 20
46.04
 30
12.3559
 10
62.436
 20
46.8391
 30
13.3475
 10
62.0024
 20
47.7297
 30
14.7585
  0
SPLINE
  5
A62
330
A02
100
AcDbEntity
  8
ShapeString
100
AcDbSpline
210
0
220
0
230
1
 70
8
 71
2
 72
6
 73
3
 74
0
 40
0
 40
0
 40
0
 40
1
 40
1
 40
1
 10
62.1536
 20
44.2556
 30
10.3538
 10
62.4448
 20
45.2409
 30
11.3644
 10
62.4404
 20
46.04
 30
12.3559
  0
SPLINE
  5
A63
330
A02
100
AcDbEntity
  8
ShapeString
100
AcDbSpline
210
0
220
0
230
1
 70
8
 71
2
 72
6
 73
3
 74
0
 40
0
 40
0
 40
0
 40
1
 40
1
 40
1
 10
61.2887
 20
42.0759
 30
8.27544
 10
61.8556
 20
43.282
 30
9.3623
 10
62.1536
 20
44.2556
 30
10.3538
  0
SPLINE
  5
A64
330
A02
100
AcDbEntity
  8
ShapeString
100
AcDbSpline
210
0
220
0
230
1
 70
8
 71
2
 72
6
 73
3
 74
0
 40
0
 40
0
 40
0
 40
1
 40
1
 40
1
 10
60.0596
 20
39.2233
 30
5.62502
 10
60.7352
 20
40.893
 30
7.20764
 10
61.2887
 20
42.0759
 30
8.27544
  0
SPLINE
  5
A65
330
A02
100
AcDbEntity
  8
ShapeString
100
AcDbSpline
210
0
220
0
230
1
 70
8
 71
2
 72
6
 73
3
 74
0
 40
0
 40
0
 40
0
 40
1
 40
1
 40
1
 10
60.6976
 20
39.4683
 30
5.47247
 10
60.241
 20
39.3281
 30
5.62502
 10
60.0596
 20
39.2233
 30
5.62502
  0
SPLINE
  5
A66
330
A02
100
AcDbEntity
  8
ShapeString
100
AcDbSpline
210
0
220
0
230
1
 70
8
 71
2
 72
6
 73
3
 74
0
 40
0
 40
0
 40
0
 40
1
 40
1
 40
1
 10
61.2146
 20
39.6435
 30
5.31993
 10
61.1542
 20
39.6086
 30
5.31993
 10
60.6976
 20
39.4683
 30
5.47247
  0
SPLINE
  5
A67
330
A02
100
AcDbEntity
  8
ShapeString
100
AcDbSpline
210
0
220
0
230
1
 70
8
 71
2
 72
6
 73
3
 74
0
 40
0
 40
0
 40
0
 40
1
 40
1
 40
1
 10
62.6954
 20
41.3618
 30
6.38773
 10
62.0351
 20
40.3639
 30
5.62502
 10
61.2146
 20
39.6435
 30
5.31993
  0
SPLINE
  5
A68
330
A02
100
AcDbEntity
  8
ShapeString
100
AcDbSpline
210
0
220
0
230
1
 70
8
 71
2
 72
6
 73
3
 74
0
 40
0
 40
0
 40
0
 40
1
 40
1
 40
1
 10
64.2188
 20
43.8909
 30
8.42798
 10
63.3557
 20
42.3597
 30
7.15044
 10
62.6954
 20
41.3618
 30
6.38773
  0
SPLINE
  5
A69
330
A02
100
AcDbEntity
  8
ShapeString
100
AcDbSpline
210
0
220
0
230
1
 70
8
 71
2
 72
6
 73
3
 74
0
 40
0
 40
0
 40
0
 40
1
 40
1
 40
1
 10
65.4588
 20
45.8864
 30
10.0106
 10
64.9945
 20
45.3871
 30
9.72459
 10
64.2188
 20
43.8909
 30
8.42798
  0
SPLINE
  5
A6A
330
A02
100
AcDbEntity
  8
ShapeString
100
AcDbSpline
210
0
220
0
230
1
 70
8
 71
2
 72
6
 73
3
 74
0
 40
0
 40
0
 40
0
 40
1
 40
1
 40
1
 10
66.1584
 20
46.537
 30
10.3157
 10
66.0979
 20
46.5021
 30
10.3157
 10
65.4588
 20
45.8864
 30
10.0106
  0
SPLINE
  5
A6B
330
A02
100
AcDbEntity
  8
ShapeString
100
AcDbSpline
210
0
220
0
230
1
 70
8
 71
2
 72
6
 73
3
 74
0
 40
0
 40
0
 40
0
 40
1
 40
1
 40
1
 10
66.6485
 20
46.6658
 30
10.125
 10
66.4607
 20
46.7116
 30
10.3157
 10
66.1584
 20
46.537
 30
10.3157
  0
SPLINE
  5
A6C
330
A02
100
AcDbEntity
  8
ShapeString
100
AcDbSpline
210
0
220
0
230
1
 70
8
 71
2
 72
6
 73
3
 74
0
 40
0
 40
0
 40
0
 40
1
 40
1
 40
1
 10
66.8897
 20
46.5738
 30
9.839
 10
66.8497
 20
46.6432
 30
9.95341
 10
66.6485
 20
46.6658
 30
10.125
  0
SPLINE
  5
A6D
330
A02
100
AcDbEntity
  8
ShapeString
100
AcDbSpline
210
0
220
0
230
1
 70
8
 71
2
 72
6
 73
3
 74
0
 40
0
 40
0
 40
0
 40
1
 40
1
 40
1
 10
64.0358
 20
40.9023
 30
4.86231
 10
65.9967
 20
43.9307
 30
7.20764
 10
66.8897
 20
46.5738
 30
9.839
  0
SPLINE
  5
A6E
330
A02
100
AcDbEntity
  8
ShapeString
100
AcDbSpline
210
0
220
0
230
1
 70
8
 71
2
 72
6
 73
3
 74
0
 40
0
 40
0
 40
0
 40
1
 40
1
 40
1
 10
59.676
 20
36.4426
 30
2.45976
 10
62.1555
 20
37.8742
 30
2.45976
 10
64.0358
 20
40.9023
 30
4.86231
  0
SPLINE
  5
A6F
330
A02
100
AcDbEntity
  8
ShapeString
100
AcDbSpline
210
0
220
0
230
1
 70
8
 71
2
 72
6
 73
3
 74
0
 40
0
 40
0
 40
0
 40
1
 40
1
 40
1
 10
57.9431
 20
35.7197
 30
2.80298
 10
58.8091
 20
35.9422
 30
2.45976
 10
59.676
 20
36.4426
 30
2.45976
  0
SPLINE
  5
A70
330
A02
100
AcDbEntity
  8
ShapeString
100
AcDbSpline
210
0
220
0
230
1
 70
8
 71
2
 72
6
 73
3
 74
0
 40
0
 40
0
 40
0
 40
1
 40
1
 40
1
 10
53.5298
 20
31.3525
 30
0.552984
 10
55.6948
 20
33.0495
 30
1.10595
 10
57.9431
 20
35.7197
 30
2.80298
  0
SPLINE
  5
A71
330
A02
100
AcDbEntity
  8
ShapeString
100
AcDbSpline
210
0
220
0
230
1
 70
8
 71
2
 72
6
 73
3
 74
0
 40
0
 40
0
 40
0
 40
1
 40
1
 40
1
 10
50.3771
 20
29.0851
 30
1.6947e-05
 10
51.385
 20
29.6671
 30
1.7286e-05
 10
53.5298
 20
31.3525
 30
0.552984
  0
SPLINE
  5
A72
330
A02
100
AcDbEntity
  8
ShapeString
100
AcDbSpline
210
0
220
0
230
1
 70
8
 71
2
 72
6
 73
3
 74
0
 40
0
 40
0
 40
0
 40
1
 40
1
 40
1
 10
43.7969
 20
27.0745
 30
2.21188
 10
46.2445
 20
26.6992
 30
1.55568e-05
 10
50.3771
 20
29.0851
 30
1.6947e-05
  0
SPLINE
  5
A73
330
A02
100
AcDbEntity
  8
ShapeString
100
AcDbSpline
210
0
220
0
230
1
 70
8
 71
2
 72
6
 73
3
 74
0
 40
0
 40
0
 40
0
 40
1
 40
1
 40
1
 10
39.9921
 20
29.0557
 30
7.37925
 10
41.3427
 20
27.4613
 30
4.44281
 10
43.7969
 20
27.0745
 30
2.21188
  0
SPLINE
  5
A74
330
A02
100
AcDbEntity
  8
ShapeString
100
AcDbSpline
210
0
220
0
230
1
 70
8
 71
2
 72
6
 73
3
 74
0
 40
0
 40
0
 40
0
 40
1
 40
1
 40
1
 10
39.6001
 20
30.3865
 30
9.30509
 10
39.6249
 20
29.6917
 30
8.42797
 10
39.9921
 20
29.0557
 30
7.37925
  0
SPLINE
  5
A75
330
A02
100
AcDbEntity
  8
ShapeString
100
AcDbSpline
210
0
220
0
230
1
 70
8
 71
2
 72
6
 73
3
 74
0
 40
0
 40
0
 40
0
 40
1
 40
1
 40
1
 10
39.6447
 20
31.9385
 30
11.1928
 10
39.5752
 20
31.0813
 30
10.1822
 10
39.6001
 20
30.3865
 30
9.30509
  0
SPLINE
  5
A76
330
A02
100
AcDbEntity
  8
ShapeString
100
AcDbSpline
210
0
220
0
230
1
 70
8
 71
2
 72
6
 73
3
 74
0
 40
0
 40
0
 40
0
 40
1
 40
1
 40
1
 10
39.701
 20
32.8652
 30
12.2987
 10
39.7811
 20
32.7265
 30
12.0699
 10
39.6447
 20
31.9385
 30
11.1928
  0
SPLINE
  5
A77
330
A02
100
AcDbEntity
  8
ShapeString
100
AcDbSpline
210
0
220
0
230
1
 70
8
 71
2
 72
6
 73
3
 74
0
 40
0
 40
0
 40
0
 40
1
 40
1
 40
1
 10
36.4992
 20
27.517
 30
7.97035
 10
39.0156
 20
32.4695
 30
12.2987
 10
39.701
 20
32.8652
 30
12.2987
  0
SPLINE
  5
A78
330
A02
100
AcDbEntity
  8
ShapeString
100
AcDbSpline
210
0
220
0
230
1
 70
8
 71
2
 72
6
 73
3
 74
0
 40
0
 40
0
 40
0
 40
1
 40
1
 40
1
 10
35.9208
 20
26.9827
 30
7.72246
 10
36.2836
 20
27.1922
 30
7.72246
 10
36.4992
 20
27.517
 30
7.97035
  0
SPLINE
  5
A79
330
A02
100
AcDbEntity
  8
ShapeString
100
AcDbSpline
210
0
220
0
230
1
 70
8
 71
2
 72
6
 73
3
 74
0
 40
0
 40
0
 40
0
 40
1
 40
1
 40
1
 10
50.2092
 20
40.8284
 30
14.6441
 10
52.7201
 20
46.2094
 30
19.5064
 10
55.0182
 20
47.5362
 30
19.5064
  0
SPLINE
  5
A7A
330
A02
100
AcDbEntity
  8
ShapeString
100
AcDbSpline
210
0
220
0
230
1
 70
8
 71
2
 72
6
 73
3
 74
0
 40
0
 40
0
 40
0
 40
1
 40
1
 40
1
 10
48.43
 20
35.6232
 30
9.4767
 10
48.9334
 20
38.0568
 30
12.1271
 10
50.2092
 20
40.8284
 30
14.6441
  0
SPLINE
  5
A7B
330
A02
100
AcDbEntity
  8
ShapeString
100
AcDbSpline
210
0
220
0
230
1
 70
8
 71
2
 72
6
 73
3
 74
0
 40
0
 40
0
 40
0
 40
1
 40
1
 40
1
 10
48.5943
 20
32.0334
 30
4.9195
 10
47.92
 20
33.2012
 30
6.84535
 10
48.43
 20
35.6232
 30
9.4767
  0
SPLINE
  5
A7C
330
A02
100
AcDbEntity
  8
ShapeString
100
AcDbSpline
210
0
220
0
230
1
 70
8
 71
2
 72
6
 73
3
 74
0
 40
0
 40
0
 40
0
 40
1
 40
1
 40
1
 10
51.1478
 20
31.1952
 30
2.05934
 10
49.2685
 20
30.8656
 30
2.99366
 10
48.5943
 20
32.0334
 30
4.9195
  0
SPLINE
  5
A7D
330
A02
100
AcDbEntity
  8
ShapeString
100
AcDbSpline
210
0
220
0
230
1
 70
8
 71
2
 72
6
 73
3
 74
0
 40
0
 40
0
 40
0
 40
1
 40
1
 40
1
 10
53.5553
 20
33.2172
 30
2.84112
 10
52.7614
 20
32.4042
 30
2.40256
 10
51.1478
 20
31.1952
 30
2.05934
  0
SPLINE
  5
A7E
330
A02
100
AcDbEntity
  8
ShapeString
100
AcDbSpline
210
0
220
0
230
1
 70
8
 71
2
 72
6
 73
3
 74
0
 40
0
 40
0
 40
0
 40
1
 40
1
 40
1
 10
55.0506
 20
35.3293
 30
4.38561
 10
54.3694
 20
34.0418
 30
3.27968
 10
53.5553
 20
33.2172
 30
2.84112
  0
SPLINE
  5
A7F
330
A02
100
AcDbEntity
  8
ShapeString
100
AcDbSpline
210
0
220
0
230
1
 70
8
 71
2
 72
6
 73
3
 74
0
 40
0
 40
0
 40
0
 40
1
 40
1
 40
1
 10
54.9321
 20
36.1397
 30
5.47247
 10
55.2057
 20
35.6193
 30
4.63349
 10
55.0506
 20
35.3293
 30
4.38561
  0
SPLINE
  5
A80
330
A02
100
AcDbEntity
  8
ShapeString
100
AcDbSpline
210
0
220
0
230
1
 70
8
 71
2
 72
6
 73
3
 74
0
 40
0
 40
0
 40
0
 40
1
 40
1
 40
1
 10
54.8947
 20
37.1356
 30
6.73095
 10
54.6721
 20
36.6833
 30
6.33052
 10
54.9321
 20
36.1397
 30
5.47247
  0
SPLINE
  5
A81
330
A02
100
AcDbEntity
  8
ShapeString
100
AcDbSpline
210
0
220
0
230
1
 70
8
 71
2
 72
6
 73
3
 74
0
 40
0
 40
0
 40
0
 40
1
 40
1
 40
1
 10
55.9781
 20
38.2852
 30
7.37925
 10
55.2322
 20
37.8546
 30
7.37925
 10
54.8947
 20
37.1356
 30
6.73095
  0
LINE
  5
A82
330
A02
100
AcDbEntity
  8
ShapeString
100
AcDbLine
 10
56.603
 20
38.646
 30
7.37925
 11
55.9781
 21
38.2852
 31
7.37925
  0
SPLINE
  5
A83
330
A02
100
AcDbEntity
  8
ShapeString
100
AcDbSpline
210
0
220
0
230
1
 70
8
 71
2
 72
6
 73
3
 74
0
 40
0
 40
0
 40
0
 40
1
 40
1
 40
1
 10
57.3295
 20
39.343
 30
7.72247
 10
57.0868
 20
38.9253
 30
7.37925
 10
56.603
 20
38.646
 30
7.37925
  0
SPLINE
  5
A84
330
A02
100
AcDbEntity
  8
ShapeString
100
AcDbSpline
210
0
220
0
230
1
 70
8
 71
2
 72
6
 73
3
 74
0
 40
0
 40
0
 40
0
 40
1
 40
1
 40
1
 10
57.8359
 20
40.4678
 30
8.75213
 10
57.5857
 20
39.7838
 30
8.08476
 10
57.3295
 20
39.343
 30
7.72247
  0
SPLINE
  5
A85
330
A02
100
AcDbEntity
  8
ShapeString
100
AcDbSpline
210
0
220
0
230
1
 70
8
 71
2
 72
6
 73
3
 74
0
 40
0
 40
0
 40
0
 40
1
 40
1
 40
1
 10
58.3095
 20
41.8821
 30
10.1631
 10
58.0995
 20
41.175
 30
9.43857
 10
57.8359
 20
40.4678
 30
8.75213
  0
SPLINE
  5
A86
330
A02
100
AcDbEntity
  8
ShapeString
100
AcDbSpline
210
0
220
0
230
1
 70
8
 71
2
 72
6
 73
3
 74
0
 40
0
 40
0
 40
0
 40
1
 40
1
 40
1
 10
58.6891
 20
43.273
 30
11.6123
 10
58.5195
 20
42.5892
 30
10.8877
 10
58.3095
 20
41.8821
 30
10.1631
  0
SPLINE
  5
A87
330
A02
100
AcDbEntity
  8
ShapeString
100
AcDbSpline
210
0
220
0
230
1
 70
8
 71
2
 72
6
 73
3
 74
0
 40
0
 40
0
 40
0
 40
1
 40
1
 40
1
 10
59.0079
 20
44.4899
 30
12.8898
 10
58.8723
 20
43.98
 30
12.3559
 10
58.6891
 20
43.273
 30
11.6123
  0
SPLINE
  5
A88
330
A02
100
AcDbEntity
  8
ShapeString
100
AcDbSpline
210
0
220
0
230
1
 70
8
 71
2
 72
6
 73
3
 74
0
 40
0
 40
0
 40
0
 40
1
 40
1
 40
1
 10
59.0443
 20
45.4976
 30
14.1102
 10
59.0491
 20
44.8375
 30
13.2903
 10
59.0079
 20
44.4899
 30
12.8898
  0
SPLINE
  5
A89
330
A02
100
AcDbEntity
  8
ShapeString
100
AcDbSpline
210
0
220
0
230
1
 70
8
 71
2
 72
6
 73
3
 74
0
 40
0
 40
0
 40
0
 40
1
 40
1
 40
1
 10
58.6456
 20
46.84
 30
16.0551
 10
59.0395
 20
46.1578
 30
14.9301
 10
59.0443
 20
45.4976
 30
14.1102
  0
SPLINE
  5
A8A
330
A02
100
AcDbEntity
  8
ShapeString
100
AcDbSpline
210
0
220
0
230
1
 70
8
 71
2
 72
6
 73
3
 74
0
 40
0
 40
0
 40
0
 40
1
 40
1
 40
1
 10
57.6084
 20
47.752
 30
17.9237
 10
58.2384
 20
47.5453
 30
17.2182
 10
58.6456
 20
46.84
 30
16.0551
  0
SPLINE
  5
A8B
330
A02
100
AcDbEntity
  8
ShapeString
100
AcDbSpline
210
0
220
0
230
1
 70
8
 71
2
 72
6
 73
3
 74
0
 40
0
 40
0
 40
0
 40
1
 40
1
 40
1
 10
55.0182
 20
47.5362
 30
19.5064
 10
56.3689
 20
48.316
 30
19.5064
 10
57.6084
 20
47.752
 30
17.9237
  0
SPLINE
  5
A8C
330
A02
100
AcDbEntity
  8
ShapeString
100
AcDbSpline
210
0
220
0
230
1
 70
8
 71
2
 72
6
 73
3
 74
0
 40
0
 40
0
 40
0
 40
1
 40
1
 40
1
 10
73.89
 20
61.8698
 30
23.7585
 10
73.5263
 20
61.336
 30
23.3581
 10
73.2024
 20
60.6865
 30
22.786
  0
SPLINE
  5
A8D
330
A02
100
AcDbEntity
  8
ShapeString
100
AcDbSpline
210
0
220
0
230
1
 70
8
 71
2
 72
6
 73
3
 74
0
 40
0
 40
0
 40
0
 40
1
 40
1
 40
1
 10
73.8188
 20
62.7845
 30
24.9407
 10
73.8241
 20
62.2633
 30
24.2924
 10
73.89
 20
61.8698
 30
23.7585
  0
SPLINE
  5
A8E
330
A02
100
AcDbEntity
  8
ShapeString
100
AcDbSpline
210
0
220
0
230
1
 70
8
 71
2
 72
6
 73
3
 74
0
 40
0
 40
0
 40
0
 40
1
 40
1
 40
1
 10
73.9096
 20
64.024
 30
26.4089
 10
73.8338
 20
63.3173
 30
25.589
 10
73.8188
 20
62.7845
 30
24.9407
  0
SPLINE
  5
A8F
330
A02
100
AcDbEntity
  8
ShapeString
100
AcDbSpline
210
0
220
0
230
1
 70
8
 71
2
 72
6
 73
3
 74
0
 40
0
 40
0
 40
0
 40
1
 40
1
 40
1
 10
75.2237
 20
66.124
 30
28.0678
 10
74.0142
 20
65.4257
 30
28.0678
 10
73.9096
 20
64.024
 30
26.4089
  0
SPLINE
  5
A90
330
A02
100
AcDbEntity
  8
ShapeString
100
AcDbSpline
210
0
220
0
230
1
 70
8
 71
1
 72
4
 73
2
 74
0
 40
0
 40
0
 40
1
 40
1
 10
76.0301
 20
66.5895
 30
28.0678
 10
75.2237
 20
66.124
 30
28.0678
  0
SPLINE
  5
A91
330
A02
100
AcDbEntity
  8
ShapeString
100
AcDbSpline
210
0
220
0
230
1
 70
8
 71
2
 72
6
 73
3
 74
0
 40
0
 40
0
 40
0
 40
1
 40
1
 40
1
 10
77.2971
 20
66.2572
 30
26.7521
 10
77.0234
 20
66.7313
 30
27.5339
 10
76.0301
 20
66.5895
 30
28.0678
  0
SPLINE
  5
A92
330
A02
100
AcDbEntity
  8
ShapeString
100
AcDbSpline
210
0
220
0
230
1
 70
8
 71
2
 72
6
 73
3
 74
0
 40
0
 40
0
 40
0
 40
1
 40
1
 40
1
 10
77.0225
 20
64.0791
 30
24.2542
 10
77.6909
 20
65.5751
 30
25.6271
 10
77.2971
 20
66.2572
 30
26.7521
  0
SPLINE
  5
A93
330
A02
100
AcDbEntity
  8
ShapeString
100
AcDbSpline
210
0
220
0
230
1
 70
8
 71
2
 72
6
 73
3
 74
0
 40
0
 40
0
 40
0
 40
1
 40
1
 40
1
 10
76.3883
 20
62.8034
 30
23.1292
 10
76.6649
 20
63.3485
 30
23.6059
 10
77.0225
 20
64.0791
 30
24.2542
  0
SPLINE
  5
A94
330
A02
100
AcDbEntity
  8
ShapeString
100
AcDbSpline
210
0
220
0
230
1
 70
8
 71
2
 72
6
 73
3
 74
0
 40
0
 40
0
 40
0
 40
1
 40
1
 40
1
 10
75.8355
 20
61.8521
 30
22.3475
 10
76.1318
 20
62.2699
 30
22.6526
 10
76.3883
 20
62.8034
 30
23.1292
  0
SPLINE
  5
A95
330
A02
100
AcDbEntity
  8
ShapeString
100
AcDbSpline
210
0
220
0
230
1
 70
8
 71
2
 72
6
 73
3
 74
0
 40
0
 40
0
 40
0
 40
1
 40
1
 40
1
 10
77.1956
 20
61.2653
 30
20.6504
 10
76.512
 20
61.4718
 30
21.3941
 10
75.8355
 20
61.8521
 30
22.3475
  0
SPLINE
  5
A96
330
A02
100
AcDbEntity
  8
ShapeString
100
AcDbSpline
210
0
220
0
230
1
 70
8
 71
2
 72
6
 73
3
 74
0
 40
0
 40
0
 40
0
 40
1
 40
1
 40
1
 10
78.4558
 20
60.8983
 30
19.2966
 10
77.8995
 20
61.0704
 30
19.9068
 10
77.1956
 20
61.2653
 30
20.6504
  0
SPLINE
  5
A97
330
A02
100
AcDbEntity
  8
ShapeString
100
AcDbSpline
210
0
220
0
230
1
 70
8
 71
2
 72
6
 73
3
 74
0
 40
0
 40
0
 40
0
 40
1
 40
1
 40
1
 10
79.3208
 20
60.7501
 30
18.4958
 10
78.7979
 20
60.8645
 30
19.0106
 10
78.4558
 20
60.8983
 30
19.2966
  0
SPLINE
  5
A98
330
A02
100
AcDbEntity
  8
ShapeString
100
AcDbSpline
210
0
220
0
230
1
 70
8
 71
2
 72
6
 73
3
 74
0
 40
0
 40
0
 40
0
 40
1
 40
1
 40
1
 10
80.6149
 20
60.5106
 30
17.2754
 10
79.8371
 20
60.6474
 30
18
 10
79.3208
 20
60.7501
 30
18.4958
  0
SPLINE
  5
A99
330
A02
100
AcDbEntity
  8
ShapeString
100
AcDbSpline
210
0
220
0
230
1
 70
8
 71
2
 72
6
 73
3
 74
0
 40
0
 40
0
 40
0
 40
1
 40
1
 40
1
 10
83.5304
 20
59.5576
 30
14.0148
 10
82.4519
 20
60.122
 30
15.4831
 10
80.6149
 20
60.5106
 30
17.2754
  0
SPLINE
  5
A9A
330
A02
100
AcDbEntity
  8
ShapeString
100
AcDbSpline
210
0
220
0
230
1
 70
8
 71
2
 72
6
 73
3
 74
0
 40
0
 40
0
 40
0
 40
1
 40
1
 40
1
 10
85.33
 20
57.7907
 30
10.5445
 10
84.6224
 20
59.0164
 30
12.5657
 10
83.5304
 20
59.5576
 30
14.0148
  0
SPLINE
  5
A9B
330
A02
100
AcDbEntity
  8
ShapeString
100
AcDbSpline
210
0
220
0
230
1
 70
8
 71
2
 72
6
 73
3
 74
0
 40
0
 40
0
 40
0
 40
1
 40
1
 40
1
 10
86.2274
 20
54.8863
 30
6.31147
 10
86.0376
 20
56.5651
 30
8.52333
 10
85.33
 20
57.7907
 30
10.5445
  0
SPLINE
  5
A9C
330
A02
100
AcDbEntity
  8
ShapeString
100
AcDbSpline
210
0
220
0
230
1
 70
8
 71
2
 72
6
 73
3
 74
0
 40
0
 40
0
 40
0
 40
1
 40
1
 40
1
 10
87.5688
 20
57.1253
 30
8.12291
 10
86.6507
 20
55.1307
 30
6.31147
 10
86.2274
 20
54.8863
 30
6.31147
  0
SPLINE
  5
A9D
330
A02
100
AcDbEntity
  8
ShapeString
100
AcDbSpline
210
0
220
0
230
1
 70
8
 71
2
 72
6
 73
3
 74
0
 40
0
 40
0
 40
0
 40
1
 40
1
 40
1
 10
88.6824
 20
59.4795
 30
10.2394
 10
88.4868
 20
59.12
 30
9.93435
 10
87.5688
 20
57.1253
 30
8.12291
  0
SPLINE
  5
A9E
330
A02
100
AcDbEntity
  8
ShapeString
100
AcDbSpline
210
0
220
0
230
1
 70
8
 71
2
 72
6
 73
3
 74
0
 40
0
 40
0
 40
0
 40
1
 40
1
 40
1
 10
89.9338
 20
60.7571
 30
10.9259
 10
89.067
 20
60.2566
 30
10.9259
 10
88.6824
 20
59.4795
 30
10.2394
  0
SPLINE
  5
A9F
330
A02
100
AcDbEntity
  8
ShapeString
100
AcDbSpline
210
0
220
0
230
1
 70
8
 71
2
 72
6
 73
3
 74
0
 40
0
 40
0
 40
0
 40
1
 40
1
 40
1
 10
90.376
 20
60.5498
 30
10.3538
 10
90.1958
 20
60.862
 30
10.8687
 10
89.9338
 20
60.7571
 30
10.9259
  0
SPLINE
  5
AA0
330
A02
100
AcDbEntity
  8
ShapeString
100
AcDbSpline
210
0
220
0
230
1
 70
8
 71
2
 72
6
 73
3
 74
0
 40
0
 40
0
 40
0
 40
1
 40
1
 40
1
 10
90.462
 20
60.1216
 30
9.76274
 10
90.4628
 20
60.3995
 30
10.106
 10
90.376
 20
60.5498
 30
10.3538
  0
SPLINE
  5
AA1
330
A02
100
AcDbEntity
  8
ShapeString
100
AcDbSpline
210
0
220
0
230
1
 70
8
 71
2
 72
6
 73
3
 74
0
 40
0
 40
0
 40
0
 40
1
 40
1
 40
1
 10
90.4879
 20
59.7974
 30
9.34324
 10
90.4612
 20
59.8436
 30
9.41952
 10
90.462
 20
60.1216
 30
9.76274
  0
SPLINE
  5
AA2
330
A02
100
AcDbEntity
  8
ShapeString
100
AcDbSpline
210
0
220
0
230
1
 70
8
 71
2
 72
6
 73
3
 74
0
 40
0
 40
0
 40
0
 40
1
 40
1
 40
1
 10
86.2725
 20
51.8752
 30
2.55511
 10
88.9997
 20
55.4848
 30
5.07206
 10
90.4879
 20
59.7974
 30
9.34324
  0
SPLINE
  5
AA3
330
A02
100
AcDbEntity
  8
ShapeString
100
AcDbSpline
210
0
220
0
230
1
 70
8
 71
2
 72
6
 73
3
 74
0
 40
0
 40
0
 40
0
 40
1
 40
1
 40
1
 10
79.164
 20
45.7052
 30
2.66309e-05
 10
83.5587
 20
48.2888
 30
0.0572315
 10
86.2725
 20
51.8752
 30
2.55511
  0
SPLINE
  5
AA4
330
A02
100
AcDbEntity
  8
ShapeString
100
AcDbSpline
210
0
220
0
230
1
 70
8
 71
2
 72
6
 73
3
 74
0
 40
0
 40
0
 40
0
 40
1
 40
1
 40
1
 10
71.4223
 20
43.3786
 30
2.65045
 10
74.4669
 20
42.9934
 30
2.50509e-05
 10
79.164
 20
45.7052
 30
2.66309e-05
  0
SPLINE
  5
AA5
330
A02
100
AcDbEntity
  8
ShapeString
100
AcDbSpline
210
0
220
0
230
1
 70
8
 71
2
 72
6
 73
3
 74
0
 40
0
 40
0
 40
0
 40
1
 40
1
 40
1
 10
69.306
 20
44.6234
 30
5.70129
 10
69.86
 20
43.6637
 30
4.11866
 10
71.4223
 20
43.3786
 30
2.65045
  0
SPLINE
  5
AA6
330
A02
100
AcDbEntity
  8
ShapeString
100
AcDbSpline
210
0
220
0
230
1
 70
8
 71
2
 72
6
 73
3
 74
0
 40
0
 40
0
 40
0
 40
1
 40
1
 40
1
 10
69.3921
 20
46.6156
 30
8.10383
 10
68.812
 20
45.479
 30
7.11231
 10
69.306
 20
44.6234
 30
5.70129
  0
SPLINE
  5
AA7
330
A02
100
AcDbEntity
  8
ShapeString
100
AcDbSpline
210
0
220
0
230
1
 70
8
 71
2
 72
6
 73
3
 74
0
 40
0
 40
0
 40
0
 40
1
 40
1
 40
1
 10
71.8411
 20
49.0779
 30
9.40044
 10
70.1074
 20
48.0769
 30
9.40044
 10
69.3921
 20
46.6156
 30
8.10383
  0
SPLINE
  5
AA8
330
A02
100
AcDbEntity
  8
ShapeString
100
AcDbSpline
210
0
220
0
230
1
 70
8
 71
2
 72
6
 73
3
 74
0
 40
0
 40
0
 40
0
 40
1
 40
1
 40
1
 10
75.3445
 20
49.6206
 30
7.56994
 10
73.7763
 20
50.1952
 30
9.40044
 10
71.8411
 20
49.0779
 30
9.40044
  0
SPLINE
  5
AA9
330
A02
100
AcDbEntity
  8
ShapeString
100
AcDbSpline
210
0
220
0
230
1
 70
8
 71
2
 72
6
 73
3
 74
0
 40
0
 40
0
 40
0
 40
1
 40
1
 40
1
 10
76.0541
 20
49.0898
 30
6.4068
 10
75.8071
 20
49.5176
 30
7.11231
 10
75.3445
 20
49.6206
 30
7.56994
  0
SPLINE
  5
AAA
330
A02
100
AcDbEntity
  8
ShapeString
100
AcDbSpline
210
0
220
0
230
1
 70
8
 71
2
 72
6
 73
3
 74
0
 40
0
 40
0
 40
0
 40
1
 40
1
 40
1
 10
75.8675
 20
47.1783
 30
4.17587
 10
76.508
 20
48.3036
 30
5.11019
 10
76.0541
 20
49.0898
 30
6.4068
  0
SPLINE
  5
AAB
330
A02
100
AcDbEntity
  8
ShapeString
100
AcDbSpline
210
0
220
0
230
1
 70
8
 71
2
 72
6
 73
3
 74
0
 40
0
 40
0
 40
0
 40
1
 40
1
 40
1
 10
74.7691
 20
45.4496
 30
2.82206
 10
75.2472
 20
46.0647
 30
3.24155
 10
75.8675
 20
47.1783
 30
4.17587
  0
SPLINE
  5
AAC
330
A02
100
AcDbEntity
  8
ShapeString
100
AcDbSpline
210
0
220
0
230
1
 70
8
 71
2
 72
6
 73
3
 74
0
 40
0
 40
0
 40
0
 40
1
 40
1
 40
1
 10
75.4676
 20
45.7295
 30
2.66952
 10
74.9706
 20
45.5196
 30
2.76485
 10
74.7691
 20
45.4496
 30
2.82206
  0
SPLINE
  5
AAD
330
A02
100
AcDbEntity
  8
ShapeString
100
AcDbSpline
210
0
220
0
230
1
 70
8
 71
2
 72
6
 73
3
 74
0
 40
0
 40
0
 40
0
 40
1
 40
1
 40
1
 10
76.5224
 20
46.2768
 30
2.59324
 10
75.958
 20
45.9509
 30
2.59324
 10
75.4676
 20
45.7295
 30
2.66952
  0
SPLINE
  5
AAE
330
A02
100
AcDbEntity
  8
ShapeString
100
AcDbSpline
210
0
220
0
230
1
 70
8
 71
2
 72
6
 73
3
 74
0
 40
0
 40
0
 40
0
 40
1
 40
1
 40
1
 10
78.2305
 20
47.7409
 30
3.18435
 10
77.8126
 20
47.0217
 30
2.59324
 10
76.5224
 20
46.2768
 30
2.59324
  0
SPLINE
  5
AAF
330
A02
100
AcDbEntity
  8
ShapeString
100
AcDbSpline
210
0
220
0
230
1
 70
8
 71
2
 72
6
 73
3
 74
0
 40
0
 40
0
 40
0
 40
1
 40
1
 40
1
 10
79.6272
 20
50.5361
 30
5.64409
 10
79.2884
 20
49.3538
 30
4.42375
 10
78.2305
 20
47.7409
 30
3.18435
  0
SPLINE
  5
AB0
330
A02
100
AcDbEntity
  8
ShapeString
100
AcDbSpline
210
0
220
0
230
1
 70
8
 71
2
 72
6
 73
3
 74
0
 40
0
 40
0
 40
0
 40
1
 40
1
 40
1
 10
79.5801
 20
52.8522
 30
8.54239
 10
79.9795
 20
51.7415
 30
6.8835
 10
79.6272
 20
50.5361
 30
5.64409
  0
SPLINE
  5
AB1
330
A02
100
AcDbEntity
  8
ShapeString
100
AcDbSpline
210
0
220
0
230
1
 70
8
 71
2
 72
6
 73
3
 74
0
 40
0
 40
0
 40
0
 40
1
 40
1
 40
1
 10
78.7256
 20
54.3323
 30
10.9831
 10
79.0861
 20
53.7079
 30
9.95341
 10
79.5801
 20
52.8522
 30
8.54239
  0
SPLINE
  5
AB2
330
A02
100
AcDbEntity
  8
ShapeString
100
AcDbSpline
210
0
220
0
230
1
 70
8
 71
2
 72
6
 73
3
 74
0
 40
0
 40
0
 40
0
 40
1
 40
1
 40
1
 10
77.6775
 20
56.1476
 30
13.9767
 10
78.3584
 20
54.9682
 30
12.0318
 10
78.7256
 20
54.3323
 30
10.9831
  0
SPLINE
  5
AB3
330
A02
100
AcDbEntity
  8
ShapeString
100
AcDbSpline
210
0
220
0
230
1
 70
8
 71
2
 72
6
 73
3
 74
0
 40
0
 40
0
 40
0
 40
1
 40
1
 40
1
 10
74.5606
 20
59.4048
 30
20.2309
 10
75.6147
 20
59.7205
 30
19.8687
 10
77.6775
 20
56.1476
 30
13.9767
  0
SPLINE
  5
AB4
330
A02
100
AcDbEntity
  8
ShapeString
100
AcDbSpline
210
0
220
0
230
1
 70
8
 71
2
 72
6
 73
3
 74
0
 40
0
 40
0
 40
0
 40
1
 40
1
 40
1
 10
72.6796
 20
56.145
 30
17.5424
 10
73.6439
 20
57.8734
 30
18.9915
 10
74.5606
 20
59.4048
 30
20.2309
  0
SPLINE
  5
AB5
330
A02
100
AcDbEntity
  8
ShapeString
100
AcDbSpline
210
0
220
0
230
1
 70
8
 71
2
 72
6
 73
3
 74
0
 40
0
 40
0
 40
0
 40
1
 40
1
 40
1
 10
70.4609
 20
52.0736
 30
14.0911
 10
71.7355
 20
54.4283
 30
16.0932
 10
72.6796
 20
56.145
 30
17.5424
  0
SPLINE
  5
AB6
330
A02
100
AcDbEntity
  8
ShapeString
100
AcDbSpline
210
0
220
0
230
1
 70
8
 71
2
 72
6
 73
3
 74
0
 40
0
 40
0
 40
0
 40
1
 40
1
 40
1
 10
68.0132
 20
47.7004
 30
10.4301
 10
69.2267
 20
49.7885
 30
12.1462
 10
70.4609
 20
52.0736
 30
14.0911
  0
SPLINE
  5
AB7
330
A02
100
AcDbEntity
  8
ShapeString
100
AcDbSpline
210
0
220
0
230
1
 70
8
 71
2
 72
6
 73
3
 74
0
 40
0
 40
0
 40
0
 40
1
 40
1
 40
1
 10
66.0587
 20
44.5215
 30
7.89408
 10
66.8199
 20
45.6239
 30
8.714
 10
68.0132
 20
47.7004
 30
10.4301
  0
SPLINE
  5
AB8
330
A02
100
AcDbEntity
  8
ShapeString
100
AcDbSpline
210
0
220
0
230
1
 70
8
 71
2
 72
6
 73
3
 74
0
 40
0
 40
0
 40
0
 40
1
 40
1
 40
1
 10
65.5001
 20
43.9061
 30
7.5318
 10
65.8227
 20
44.0923
 30
7.5318
 10
66.0587
 20
44.5215
 30
7.89408
  0
SPLINE
  5
AB9
330
A02
100
AcDbEntity
  8
ShapeString
100
AcDbSpline
210
0
220
0
230
1
 70
8
 71
2
 72
6
 73
3
 74
0
 40
0
 40
0
 40
0
 40
1
 40
1
 40
1
 10
64.8494
 20
43.9158
 30
8.00849
 10
65.0163
 20
43.6268
 30
7.5318
 10
65.5001
 20
43.9061
 30
7.5318
  0
SPLINE
  5
ABA
330
A02
100
AcDbEntity
  8
ShapeString
100
AcDbSpline
210
0
220
0
230
1
 70
8
 71
2
 72
6
 73
3
 74
0
 40
0
 40
0
 40
0
 40
1
 40
1
 40
1
 10
65.0805
 20
44.9588
 30
9.13349
 10
64.6625
 20
44.2396
 30
8.54239
 10
64.8494
 20
43.9158
 30
8.00849
  0
SPLINE
  5
ABB
330
A02
100
AcDbEntity
  8
ShapeString
100
AcDbSpline
210
0
220
0
230
1
 70
8
 71
2
 72
6
 73
3
 74
0
 40
0
 40
0
 40
0
 40
1
 40
1
 40
1
 10
65.3705
 20
45.4808
 30
9.57205
 10
65.0805
 20
44.9588
 30
9.13349
 10
65.0805
 20
44.9588
 30
9.13349
  0
SPLINE
  5
ABC
330
A02
100
AcDbEntity
  8
ShapeString
100
AcDbSpline
210
0
220
0
230
1
 70
8
 71
2
 72
6
 73
3
 74
0
 40
0
 40
0
 40
0
 40
1
 40
1
 40
1
 10
66.1733
 20
47.0698
 30
10.964
 10
65.6403
 20
45.9912
 30
10.0106
 10
65.3705
 20
45.4808
 30
9.57205
  0
SPLINE
  5
ABD
330
A02
100
AcDbEntity
  8
ShapeString
100
AcDbSpline
210
0
220
0
230
1
 70
8
 71
2
 72
6
 73
3
 74
0
 40
0
 40
0
 40
0
 40
1
 40
1
 40
1
 10
68.3393
 20
51.4653
 30
14.8538
 10
67.2056
 20
49.1458
 30
12.7945
 10
66.1733
 20
47.0698
 30
10.964
  0
SPLINE
  5
ABE
330
A02
100
AcDbEntity
  8
ShapeString
100
AcDbSpline
210
0
220
0
230
1
 70
8
 71
2
 72
6
 73
3
 74
0
 40
0
 40
0
 40
0
 40
1
 40
1
 40
1
 10
69.6814
 20
53.9823
 30
17.0085
 10
68.9732
 20
52.6485
 30
15.8644
 10
68.3393
 20
51.4653
 30
14.8538
  0
SPLINE
  5
ABF
330
A02
100
AcDbEntity
  8
ShapeString
100
AcDbSpline
210
0
220
0
230
1
 70
8
 71
2
 72
6
 73
3
 74
0
 40
0
 40
0
 40
0
 40
1
 40
1
 40
1
 10
71.2865
 20
56.9286
 30
19.5064
 10
70.3896
 20
55.3162
 30
18.1526
 10
69.6814
 20
53.9823
 30
17.0085
  0
SPLINE
  5
AC0
330
A02
100
AcDbEntity
  8
ShapeString
100
AcDbSpline
210
0
220
0
230
1
 70
8
 71
2
 72
6
 73
3
 74
0
 40
0
 40
0
 40
0
 40
1
 40
1
 40
1
 10
71.8733
 20
58.0537
 30
20.4788
 10
71.5629
 20
57.4274
 30
19.9259
 10
71.2865
 20
56.9286
 30
19.5064
  0
SPLINE
  5
AC1
330
A02
100
AcDbEntity
  8
ShapeString
100
AcDbSpline
210
0
220
0
230
1
 70
8
 71
2
 72
6
 73
3
 74
0
 40
0
 40
0
 40
0
 40
1
 40
1
 40
1
 10
72.5144
 20
59.3642
 30
21.642
 10
72.177
 20
58.6915
 30
21.0509
 10
71.8733
 20
58.0537
 30
20.4788
  0
SPLINE
  5
AC2
330
A02
100
AcDbEntity
  8
ShapeString
100
AcDbSpline
210
0
220
0
230
1
 70
8
 71
2
 72
6
 73
3
 74
0
 40
0
 40
0
 40
0
 40
1
 40
1
 40
1
 10
73.2024
 20
60.6865
 30
22.786
 10
72.8719
 20
60.0486
 30
22.2331
 10
72.5144
 20
59.3642
 30
21.642
  0
LINE
  5
AC3
330
A02
100
AcDbEntity
  8
ShapeString
100
AcDbLine
 10
91.1383
 20
52.6186
 30
3.06592e-05
 11
99.2019
 21
57.2741
 31
3.33718e-05
  0
SPLINE
  5
AC4
330
A02
100
AcDbEntity
  8
ShapeString
100
AcDbSpline
210
0
220
0
230
1
 70
8
 71
2
 72
6
 73
3
 74
0
 40
0
 40
0
 40
0
 40
1
 40
1
 40
1
 10
92.0196
 20
55.8408
 30
3.35596
 10
91.0783
 20
52.7227
 30
0.171641
 10
91.1383
 20
52.6186
 30
3.06592e-05
  0
SPLINE
  5
AC5
330
A02
100
AcDbEntity
  8
ShapeString
100
AcDbSpline
210
0
220
0
230
1
 70
8
 71
2
 72
6
 73
3
 74
0
 40
0
 40
0
 40
0
 40
1
 40
1
 40
1
 10
92.9482
 20
59.1673
 30
6.80723
 10
92.4467
 20
57.3824
 30
4.95765
 10
92.0196
 20
55.8408
 30
3.35596
  0
SPLINE
  5
AC6
330
A02
100
AcDbEntity
  8
ShapeString
100
AcDbSpline
210
0
220
0
230
1
 70
8
 71
2
 72
6
 73
3
 74
0
 40
0
 40
0
 40
0
 40
1
 40
1
 40
1
 10
94.0727
 20
62.9925
 30
10.7352
 10
93.443
 20
60.9639
 30
8.67587
 10
92.9482
 20
59.1673
 30
6.80723
  0
SPLINE
  5
AC7
330
A02
100
AcDbEntity
  8
ShapeString
100
AcDbSpline
210
0
220
0
230
1
 70
8
 71
2
 72
6
 73
3
 74
0
 40
0
 40
0
 40
0
 40
1
 40
1
 40
1
 10
95.2104
 20
66.7481
 30
14.5678
 10
94.7025
 20
65.0673
 30
12.8517
 10
94.0727
 20
62.9925
 30
10.7352
  0
SPLINE
  5
AC8
330
A02
100
AcDbEntity
  8
ShapeString
100
AcDbSpline
210
0
220
0
230
1
 70
8
 71
2
 72
6
 73
3
 74
0
 40
0
 40
0
 40
0
 40
1
 40
1
 40
1
 10
96.1312
 20
69.7156
 30
17.5805
 10
95.7183
 20
68.4289
 30
16.2839
 10
95.2104
 20
66.7481
 30
14.5678
  0
LINE
  5
AC9
330
A02
100
AcDbEntity
  8
ShapeString
100
AcDbLine
 10
88.6445
 20
57.9622
 30
8.38985
 11
96.1312
 21
69.7156
 31
17.5805
  0
SPLINE
  5
ACA
330
A02
100
AcDbEntity
  8
ShapeString
100
AcDbSpline
210
0
220
0
230
1
 70
8
 71
2
 72
6
 73
3
 74
0
 40
0
 40
0
 40
0
 40
1
 40
1
 40
1
 10
88.2546
 20
57.66
 30
8.29452
 10
88.5236
 20
57.8924
 30
8.38985
 10
88.6445
 20
57.9622
 30
8.38985
  0
SPLINE
  5
ACB
330
A02
100
AcDbEntity
  8
ShapeString
100
AcDbSpline
210
0
220
0
230
1
 70
8
 71
2
 72
6
 73
3
 74
0
 40
0
 40
0
 40
0
 40
1
 40
1
 40
1
 10
87.5354
 20
57.1831
 30
8.21824
 10
87.9587
 20
57.4275
 30
8.21824
 10
88.2546
 20
57.66
 30
8.29452
  0
SPLINE
  5
ACC
330
A02
100
AcDbEntity
  8
ShapeString
100
AcDbSpline
210
0
220
0
230
1
 70
8
 71
2
 72
6
 73
3
 74
0
 40
0
 40
0
 40
0
 40
1
 40
1
 40
1
 10
87.4628
 20
57.5883
 30
8.77121
 10
87.4753
 20
57.2872
 30
8.38985
 10
87.5354
 20
57.1831
 30
8.21824
  0
SPLINE
  5
ACD
330
A02
100
AcDbEntity
  8
ShapeString
100
AcDbSpline
210
0
220
0
230
1
 70
8
 71
2
 72
6
 73
3
 74
0
 40
0
 40
0
 40
0
 40
1
 40
1
 40
1
 10
87.7271
 20
58.5271
 30
9.74367
 10
87.4502
 20
57.8894
 30
9.15257
 10
87.4628
 20
57.5883
 30
8.77121
  0
SPLINE
  5
ACE
330
A02
100
AcDbEntity
  8
ShapeString
100
AcDbSpline
210
0
220
0
230
1
 70
8
 71
2
 72
6
 73
3
 74
0
 40
0
 40
0
 40
0
 40
1
 40
1
 40
1
 10
88.5226
 20
59.896
 30
10.8687
 10
87.9495
 20
58.8868
 30
10.0297
 10
87.7271
 20
58.5271
 30
9.74367
  0
SPLINE
  5
ACF
330
A02
100
AcDbEntity
  8
ShapeString
100
AcDbSpline
210
0
220
0
230
1
 70
8
 71
2
 72
6
 73
3
 74
0
 40
0
 40
0
 40
0
 40
1
 40
1
 40
1
 10
90.0667
 20
62.6684
 30
13.1949
 10
89.089
 20
60.9168
 30
11.7267
 10
88.5226
 20
59.896
 30
10.8687
  0
SPLINE
  5
AD0
330
A02
100
AcDbEntity
  8
ShapeString
100
AcDbSpline
210
0
220
0
230
1
 70
8
 71
2
 72
6
 73
3
 74
0
 40
0
 40
0
 40
0
 40
1
 40
1
 40
1
 10
91.7663
 20
65.8234
 30
15.8835
 10
91.0043
 20
64.443
 30
14.7204
 10
90.0667
 20
62.6684
 30
13.1949
  0
SPLINE
  5
AD1
330
A02
100
AcDbEntity
  8
ShapeString
100
AcDbSpline
210
0
220
0
230
1
 70
8
 71
2
 72
6
 73
3
 74
0
 40
0
 40
0
 40
0
 40
1
 40
1
 40
1
 10
93.1015
 20
68.2593
 30
17.9428
 10
92.5417
 20
67.227
 30
17.0657
 10
91.7663
 20
65.8234
 30
15.8835
  0
SPLINE
  5
AD2
330
A02
100
AcDbEntity
  8
ShapeString
100
AcDbSpline
210
0
220
0
230
1
 70
8
 71
2
 72
6
 73
3
 74
0
 40
0
 40
0
 40
0
 40
1
 40
1
 40
1
 10
94.4099
 20
70.6952
 30
20.0212
 10
93.6412
 20
69.3264
 30
18.8771
 10
93.1015
 20
68.2593
 30
17.9428
  0
SPLINE
  5
AD3
330
A02
100
AcDbEntity
  8
ShapeString
100
AcDbSpline
210
0
220
0
230
1
 70
8
 71
2
 72
6
 73
3
 74
0
 40
0
 40
0
 40
0
 40
1
 40
1
 40
1
 10
96.1092
 20
73.7575
 30
22.5954
 10
95.192
 20
72.0872
 30
21.1843
 10
94.4099
 20
70.6952
 30
20.0212
  0
SPLINE
  5
AD4
330
A02
100
AcDbEntity
  8
ShapeString
100
AcDbSpline
210
0
220
0
230
1
 70
8
 71
2
 72
6
 73
3
 74
0
 40
0
 40
0
 40
0
 40
1
 40
1
 40
1
 10
98.3371
 20
78.6976
 30
27.1144
 10
97.4377
 20
76.205
 30
24.6737
 10
96.1092
 20
73.7575
 30
22.5954
  0
SPLINE
  5
AD5
330
A02
100
AcDbEntity
  8
ShapeString
100
AcDbSpline
210
0
220
0
230
1
 70
8
 71
2
 72
6
 73
3
 74
0
 40
0
 40
0
 40
0
 40
1
 40
1
 40
1
 10
100.273
 20
84.6097
 30
33.0445
 10
99.2499
 20
81.2134
 30
29.5742
 10
98.3371
 20
78.6976
 30
27.1144
  0
SPLINE
  5
AD6
330
A02
100
AcDbEntity
  8
ShapeString
100
AcDbSpline
210
0
220
0
230
1
 70
8
 71
2
 72
6
 73
3
 74
0
 40
0
 40
0
 40
0
 40
1
 40
1
 40
1
 10
101.742
 20
89.3275
 30
37.8305
 10
101.248
 20
88.0406
 30
36.5911
 10
100.273
 20
84.6097
 30
33.0445
  0
LINE
  5
AD7
330
A02
100
AcDbEntity
  8
ShapeString
100
AcDbLine
 10
108.374
 20
93.1567
 30
37.8305
 11
101.742
 21
89.3275
 31
37.8305
  0
LINE
  5
AD8
330
A02
100
AcDbEntity
  8
ShapeString
100
AcDbLine
 10
102.734
 20
70.2902
 30
13.5763
 11
108.374
 21
93.1567
 31
37.8305
  0
SPLINE
  5
AD9
330
A02
100
AcDbEntity
  8
ShapeString
100
AcDbSpline
210
0
220
0
230
1
 70
8
 71
2
 72
6
 73
3
 74
0
 40
0
 40
0
 40
0
 40
1
 40
1
 40
1
 10
104.553
 20
73.0055
 30
15.6356
 10
103.01
 20
70.6964
 30
13.8814
 10
102.734
 20
70.2902
 30
13.5763
  0
SPLINE
  5
ADA
330
A02
100
AcDbEntity
  8
ShapeString
100
AcDbSpline
210
0
220
0
230
1
 70
8
 71
2
 72
6
 73
3
 74
0
 40
0
 40
0
 40
0
 40
1
 40
1
 40
1
 10
105.995
 20
75.1637
 30
17.2754
 10
105.314
 20
74.1542
 30
16.5127
 10
104.553
 20
73.0055
 30
15.6356
  0
SPLINE
  5
ADB
330
A02
100
AcDbEntity
  8
ShapeString
100
AcDbSpline
210
0
220
0
230
1
 70
8
 71
2
 72
6
 73
3
 74
0
 40
0
 40
0
 40
0
 40
1
 40
1
 40
1
 10
107.335
 20
77.0785
 30
18.6865
 10
106.696
 20
76.1849
 30
18.0382
 10
105.995
 20
75.1637
 30
17.2754
  0
SPLINE
  5
ADC
330
A02
100
AcDbEntity
  8
ShapeString
100
AcDbSpline
210
0
220
0
230
1
 70
8
 71
2
 72
6
 73
3
 74
0
 40
0
 40
0
 40
0
 40
1
 40
1
 40
1
 10
110.048
 20
80.3869
 30
20.8411
 10
108.682
 20
78.889
 30
19.964
 10
107.335
 20
77.0785
 30
18.6865
  0
SPLINE
  5
ADD
330
A02
100
AcDbEntity
  8
ShapeString
100
AcDbSpline
210
0
220
0
230
1
 70
8
 71
2
 72
6
 73
3
 74
0
 40
0
 40
0
 40
0
 40
1
 40
1
 40
1
 10
112.765
 20
82.6646
 30
21.7182
 10
111.414
 20
81.8848
 30
21.7182
 10
110.048
 20
80.3869
 30
20.8411
  0
SPLINE
  5
ADE
330
A02
100
AcDbEntity
  8
ShapeString
100
AcDbSpline
210
0
220
0
230
1
 70
8
 71
2
 72
6
 73
3
 74
0
 40
0
 40
0
 40
0
 40
1
 40
1
 40
1
 10
116.243
 20
83.5779
 30
20.3644
 10
114.761
 20
83.8169
 30
21.7182
 10
112.765
 20
82.6646
 30
21.7182
  0
SPLINE
  5
ADF
330
A02
100
AcDbEntity
  8
ShapeString
100
AcDbSpline
210
0
220
0
230
1
 70
8
 71
2
 72
6
 73
3
 74
0
 40
0
 40
0
 40
0
 40
1
 40
1
 40
1
 10
118.432
 20
82.1595
 30
17.0466
 10
117.738
 20
83.362
 30
19.0297
 10
116.243
 20
83.5779
 30
20.3644
  0
SPLINE
  5
AE0
330
A02
100
AcDbEntity
  8
ShapeString
100
AcDbSpline
210
0
220
0
230
1
 70
8
 71
2
 72
6
 73
3
 74
0
 40
0
 40
0
 40
0
 40
1
 40
1
 40
1
 10
118.855
 20
79.8444
 30
13.8814
 10
119.053
 20
81.0842
 30
15.2733
 10
118.432
 20
82.1595
 30
17.0466
  0
SPLINE
  5
AE1
330
A02
100
AcDbEntity
  8
ShapeString
100
AcDbSpline
210
0
220
0
230
1
 70
8
 71
2
 72
6
 73
3
 74
0
 40
0
 40
0
 40
0
 40
1
 40
1
 40
1
 10
118.556
 20
78.4538
 30
12.375
 10
118.78
 20
79.4157
 30
13.4047
 10
118.855
 20
79.8444
 30
13.8814
  0
SPLINE
  5
AE2
330
A02
100
AcDbEntity
  8
ShapeString
100
AcDbSpline
210
0
220
0
230
1
 70
8
 71
2
 72
6
 73
3
 74
0
 40
0
 40
0
 40
0
 40
1
 40
1
 40
1
 10
117.838
 20
76.0196
 30
9.87715
 10
118.325
 20
77.5034
 30
11.3644
 10
118.556
 20
78.4538
 30
12.375
  0
SPLINE
  5
AE3
330
A02
100
AcDbEntity
  8
ShapeString
100
AcDbSpline
210
0
220
0
230
1
 70
8
 71
2
 72
6
 73
3
 74
0
 40
0
 40
0
 40
0
 40
1
 40
1
 40
1
 10
117.053
 20
73.4694
 30
7.28393
 10
117.371
 20
74.5474
 30
8.38986
 10
117.838
 20
76.0196
 30
9.87715
  0
SPLINE
  5
AE4
330
A02
100
AcDbEntity
  8
ShapeString
100
AcDbSpline
210
0
220
0
230
1
 70
8
 71
2
 72
6
 73
3
 74
0
 40
0
 40
0
 40
0
 40
1
 40
1
 40
1
 10
116.497
 20
71.638
 30
5.41529
 10
116.728
 20
72.403
 30
6.19707
 10
117.053
 20
73.4694
 30
7.28393
  0
SPLINE
  5
AE5
330
A02
100
AcDbEntity
  8
ShapeString
100
AcDbSpline
210
0
220
0
230
1
 70
8
 71
2
 72
6
 73
3
 74
0
 40
0
 40
0
 40
0
 40
1
 40
1
 40
1
 10
116.398
 20
69.8078
 30
3.22249
 10
116.151
 20
70.2356
 30
3.928
 10
116.497
 20
71.638
 30
5.41529
  0
SPLINE
  5
AE6
330
A02
100
AcDbEntity
  8
ShapeString
100
AcDbSpline
210
0
220
0
230
1
 70
8
 71
2
 72
6
 73
3
 74
0
 40
0
 40
0
 40
0
 40
1
 40
1
 40
1
 10
116.646
 20
69.6579
 30
2.86021
 10
116.485
 20
69.6575
 30
2.97461
 10
116.398
 20
69.8078
 30
3.22249
  0
SPLINE
  5
AE7
330
A02
100
AcDbEntity
  8
ShapeString
100
AcDbSpline
210
0
220
0
230
1
 70
8
 71
2
 72
6
 73
3
 74
0
 40
0
 40
0
 40
0
 40
1
 40
1
 40
1
 10
117.27
 20
69.8797
 30
2.6886
 10
116.908
 20
69.6703
 30
2.6886
 10
116.646
 20
69.6579
 30
2.86021
  0
SPLINE
  5
AE8
330
A02
100
AcDbEntity
  8
ShapeString
100
AcDbSpline
210
0
220
0
230
1
 70
8
 71
2
 72
6
 73
3
 74
0
 40
0
 40
0
 40
0
 40
1
 40
1
 40
1
 10
118.858
 20
71.4593
 30
3.50851
 10
118.016
 20
70.3104
 30
2.6886
 10
117.27
 20
69.8797
 30
2.6886
  0
SPLINE
  5
AE9
330
A02
100
AcDbEntity
  8
ShapeString
100
AcDbSpline
210
0
220
0
230
1
 70
8
 71
2
 72
6
 73
3
 74
0
 40
0
 40
0
 40
0
 40
1
 40
1
 40
1
 10
120.684
 20
74.2557
 30
5.66317
 10
119.714
 20
72.6315
 30
4.34749
 10
118.858
 20
71.4593
 30
3.50851
  0
SPLINE
  5
AEA
330
A02
100
AcDbEntity
  8
ShapeString
100
AcDbSpline
210
0
220
0
230
1
 70
8
 71
2
 72
6
 73
3
 74
0
 40
0
 40
0
 40
0
 40
1
 40
1
 40
1
 10
121.338
 20
75.2188
 30
6.38775
 10
120.987
 20
74.6156
 30
5.89199
 10
120.684
 20
74.2557
 30
5.66317
  0
SPLINE
  5
AEB
330
A02
100
AcDbEntity
  8
ShapeString
100
AcDbSpline
210
0
220
0
230
1
 70
8
 71
2
 72
6
 73
3
 74
0
 40
0
 40
0
 40
0
 40
1
 40
1
 40
1
 10
122.026
 20
76.4947
 30
7.47461
 10
121.682
 20
75.8336
 30
6.90258
 10
121.338
 20
75.2188
 30
6.38775
  0
SPLINE
  5
AEC
330
A02
100
AcDbEntity
  8
ShapeString
100
AcDbSpline
210
0
220
0
230
1
 70
8
 71
2
 72
6
 73
3
 74
0
 40
0
 40
0
 40
0
 40
1
 40
1
 40
1
 10
122.74
 20
77.8171
 30
8.59961
 10
122.39
 20
77.1675
 30
8.04665
 10
122.026
 20
76.4947
 30
7.47461
  0
SPLINE
  5
AED
330
A02
100
AcDbEntity
  8
ShapeString
100
AcDbSpline
210
0
220
0
230
1
 70
8
 71
2
 72
6
 73
3
 74
0
 40
0
 40
0
 40
0
 40
1
 40
1
 40
1
 10
123.462
 20
79.0352
 30
9.59114
 10
123.105
 20
78.4898
 30
9.17165
 10
122.74
 20
77.8171
 30
8.59961
  0
SPLINE
  5
AEE
330
A02
100
AcDbEntity
  8
ShapeString
100
AcDbSpline
210
0
220
0
230
1
 70
8
 71
2
 72
6
 73
3
 74
0
 40
0
 40
0
 40
0
 40
1
 40
1
 40
1
 10
124.531
 20
79.8836
 30
9.87715
 10
123.785
 20
79.453
 30
9.87715
 10
123.462
 20
79.0352
 30
9.59114
  0
SPLINE
  5
AEF
330
A02
100
AcDbEntity
  8
ShapeString
100
AcDbSpline
210
0
220
0
230
1
 70
8
 71
2
 72
6
 73
3
 74
0
 40
0
 40
0
 40
0
 40
1
 40
1
 40
1
 10
124.945
 20
79.3057
 30
8.86656
 10
124.651
 20
79.8145
 30
9.70554
 10
124.531
 20
79.8836
 30
9.87715
  0
SPLINE
  5
AF0
330
A02
100
AcDbEntity
  8
ShapeString
100
AcDbSpline
210
0
220
0
230
1
 70
8
 71
2
 72
6
 73
3
 74
0
 40
0
 40
0
 40
0
 40
1
 40
1
 40
1
 10
123.622
 20
76.5224
 30
6.36868
 10
124.216
 20
77.7286
 30
7.43648
 10
124.945
 20
79.3057
 30
8.86656
  0
SPLINE
  5
AF1
330
A02
100
AcDbEntity
  8
ShapeString
100
AcDbSpline
210
0
220
0
230
1
 70
8
 71
2
 72
6
 73
3
 74
0
 40
0
 40
0
 40
0
 40
1
 40
1
 40
1
 10
122.637
 20
74.4581
 30
4.51911
 10
123.049
 20
75.3279
 30
5.30089
 10
123.622
 20
76.5224
 30
6.36868
  0
SPLINE
  5
AF2
330
A02
100
AcDbEntity
  8
ShapeString
100
AcDbSpline
210
0
220
0
230
1
 70
8
 71
2
 72
6
 73
3
 74
0
 40
0
 40
0
 40
0
 40
1
 40
1
 40
1
 10
120.366
 20
70.9424
 30
1.79241
 10
121.767
 20
72.7995
 30
3.08902
 10
122.637
 20
74.4581
 30
4.51911
  0
SPLINE
  5
AF3
330
A02
100
AcDbEntity
  8
ShapeString
100
AcDbSpline
210
0
220
0
230
1
 70
8
 71
2
 72
6
 73
3
 74
0
 40
0
 40
0
 40
0
 40
1
 40
1
 40
1
 10
118.401
 20
68.7595
 30
0.495802
 10
119.531
 20
69.8282
 30
1.01063
 10
120.366
 20
70.9424
 30
1.79241
  0
SPLINE
  5
AF4
330
A02
100
AcDbEntity
  8
ShapeString
100
AcDbSpline
210
0
220
0
230
1
 70
8
 71
2
 72
6
 73
3
 74
0
 40
0
 40
0
 40
0
 40
1
 40
1
 40
1
 10
116.095
 20
67.0273
 30
3.90547e-05
 10
117.284
 20
67.714
 30
3.94548e-05
 10
118.401
 20
68.7595
 30
0.495802
  0
SPLINE
  5
AF5
330
A02
100
AcDbEntity
  8
ShapeString
100
AcDbSpline
210
0
220
0
230
1
 70
8
 71
2
 72
6
 73
3
 74
0
 40
0
 40
0
 40
0
 40
1
 40
1
 40
1
 10
113.328
 20
66.0003
 30
0.705546
 10
114.684
 20
66.2126
 30
3.85799e-05
 10
116.095
 20
67.0273
 30
3.90547e-05
  0
SPLINE
  5
AF6
330
A02
100
AcDbEntity
  8
ShapeString
100
AcDbSpline
210
0
220
0
230
1
 70
8
 71
2
 72
6
 73
3
 74
0
 40
0
 40
0
 40
0
 40
1
 40
1
 40
1
 10
111.31
 20
66.3305
 30
2.55512
 10
112.234
 20
65.893
 30
1.35385
 10
113.328
 20
66.0003
 30
0.705546
  0
SPLINE
  5
AF7
330
A02
100
AcDbEntity
  8
ShapeString
100
AcDbSpline
210
0
220
0
230
1
 70
8
 71
2
 72
6
 73
3
 74
0
 40
0
 40
0
 40
0
 40
1
 40
1
 40
1
 10
109.878
 20
67.6467
 30
5.20554
 10
110.385
 20
66.768
 30
3.75639
 10
111.31
 20
66.3305
 30
2.55512
  0
SPLINE
  5
AF8
330
A02
100
AcDbEntity
  8
ShapeString
100
AcDbSpline
210
0
220
0
230
1
 70
8
 71
2
 72
6
 73
3
 74
0
 40
0
 40
0
 40
0
 40
1
 40
1
 40
1
 10
109.727
 20
71.2134
 30
9.72461
 10
109.017
 20
69.1383
 30
7.66529
 10
109.878
 20
67.6467
 30
5.20554
  0
SPLINE
  5
AF9
330
A02
100
AcDbEntity
  8
ShapeString
100
AcDbSpline
210
0
220
0
230
1
 70
8
 71
2
 72
6
 73
3
 74
0
 40
0
 40
0
 40
0
 40
1
 40
1
 40
1
 10
110.045
 20
72.0598
 30
10.5445
 10
109.788
 20
71.3873
 30
9.89622
 10
109.727
 20
71.2134
 30
9.72461
  0
SPLINE
  5
AFA
330
A02
100
AcDbEntity
  8
ShapeString
100
AcDbSpline
210
0
220
0
230
1
 70
8
 71
2
 72
6
 73
3
 74
0
 40
0
 40
0
 40
0
 40
1
 40
1
 40
1
 10
110.801
 20
73.915
 30
12.2988
 10
110.322
 20
72.7439
 30
11.1928
 10
110.045
 20
72.0598
 30
10.5445
  0
SPLINE
  5
AFB
330
A02
100
AcDbEntity
  8
ShapeString
100
AcDbSpline
210
0
220
0
230
1
 70
8
 71
2
 72
6
 73
3
 74
0
 40
0
 40
0
 40
0
 40
1
 40
1
 40
1
 10
111.579
 20
76.0134
 30
14.339
 10
111.261
 20
75.1208
 30
13.4619
 10
110.801
 20
73.915
 30
12.2988
  0
SPLINE
  5
AFC
330
A02
100
AcDbEntity
  8
ShapeString
100
AcDbSpline
210
0
220
0
230
1
 70
8
 71
2
 72
6
 73
3
 74
0
 40
0
 40
0
 40
0
 40
1
 40
1
 40
1
 10
112.093
 20
77.5437
 30
15.8644
 10
111.89
 20
76.9177
 30
15.2352
 10
111.579
 20
76.0134
 30
14.339
  0
SPLINE
  5
AFD
330
A02
100
AcDbEntity
  8
ShapeString
100
AcDbSpline
210
0
220
0
230
1
 70
8
 71
2
 72
6
 73
3
 74
0
 40
0
 40
0
 40
0
 40
1
 40
1
 40
1
 10
112.239
 20
79.2929
 30
17.9238
 10
112.486
 20
78.8651
 30
17.2182
 10
112.093
 20
77.5437
 30
15.8644
  0
SPLINE
  5
AFE
330
A02
100
AcDbEntity
  8
ShapeString
100
AcDbSpline
210
0
220
0
230
1
 70
8
 71
2
 72
6
 73
3
 74
0
 40
0
 40
0
 40
0
 40
1
 40
1
 40
1
 10
111.79
 20
79.5117
 30
18.5149
 10
112.119
 20
79.501
 30
18.267
 10
112.239
 20
79.2929
 30
17.9238
  0
SPLINE
  5
AFF
330
A02
100
AcDbEntity
  8
ShapeString
100
AcDbSpline
210
0
220
0
230
1
 70
8
 71
2
 72
6
 73
3
 74
0
 40
0
 40
0
 40
0
 40
1
 40
1
 40
1
 10
111.448
 20
79.4065
 30
18.6293
 10
111.629
 20
79.5112
 30
18.6293
 10
111.79
 20
79.5117
 30
18.5149
  0
SPLINE
  5
B00
330
A02
100
AcDbEntity
  8
ShapeString
100
AcDbSpline
210
0
220
0
230
1
 70
8
 71
2
 72
6
 73
3
 74
0
 40
0
 40
0
 40
0
 40
1
 40
1
 40
1
 10
110.513
 20
78.5584
 30
18.2479
 10
111.065
 20
79.1853
 30
18.6293
 10
111.448
 20
79.4065
 30
18.6293
  0
SPLINE
  5
B01
330
A02
100
AcDbEntity
  8
ShapeString
100
AcDbSpline
210
0
220
0
230
1
 70
8
 71
2
 72
6
 73
3
 74
0
 40
0
 40
0
 40
0
 40
1
 40
1
 40
1
 10
109.314
 20
77.003
 30
17.1801
 10
109.981
 20
77.943
 30
17.8666
 10
110.513
 20
78.5584
 30
18.2479
  0
SPLINE
  5
B02
330
A02
100
AcDbEntity
  8
ShapeString
100
AcDbSpline
210
0
220
0
230
1
 70
8
 71
2
 72
6
 73
3
 74
0
 40
0
 40
0
 40
0
 40
1
 40
1
 40
1
 10
107.94
 20
74.9608
 30
15.6356
 10
108.661
 20
76.0862
 30
16.5127
 10
109.314
 20
77.003
 30
17.1801
  0
SPLINE
  5
B03
330
A02
100
AcDbEntity
  8
ShapeString
100
AcDbSpline
210
0
220
0
230
1
 70
8
 71
2
 72
6
 73
3
 74
0
 40
0
 40
0
 40
0
 40
1
 40
1
 40
1
 10
106.498
 20
72.6635
 30
13.8242
 10
107.219
 20
73.8353
 30
14.7585
 10
107.94
 20
74.9608
 30
15.6356
  0
SPLINE
  5
B04
330
A02
100
AcDbEntity
  8
ShapeString
100
AcDbSpline
210
0
220
0
230
1
 70
8
 71
2
 72
6
 73
3
 74
0
 40
0
 40
0
 40
0
 40
1
 40
1
 40
1
 10
105.176
 20
70.4361
 30
12.0127
 10
105.797
 20
71.4571
 30
12.8327
 10
106.498
 20
72.6635
 30
13.8242
  0
SPLINE
  5
B05
330
A02
100
AcDbEntity
  8
ShapeString
100
AcDbSpline
210
0
220
0
230
1
 70
8
 71
2
 72
6
 73
3
 74
0
 40
0
 40
0
 40
0
 40
1
 40
1
 40
1
 10
104.03
 20
68.4177
 30
10.3348
 10
104.577
 20
69.4268
 30
11.1928
 10
105.176
 20
70.4361
 30
12.0127
  0
SPLINE
  5
B06
330
A02
100
AcDbEntity
  8
ShapeString
100
AcDbSpline
210
0
220
0
230
1
 70
8
 71
2
 72
6
 73
3
 74
0
 40
0
 40
0
 40
0
 40
1
 40
1
 40
1
 10
102.904
 20
66.3646
 30
8.59961
 10
103.497
 20
67.4317
 30
9.49579
 10
104.03
 20
68.4177
 30
10.3348
  0
SPLINE
  5
B07
330
A02
100
AcDbEntity
  8
ShapeString
100
AcDbSpline
210
0
220
0
230
1
 70
8
 71
2
 72
6
 73
3
 74
0
 40
0
 40
0
 40
0
 40
1
 40
1
 40
1
 10
101.623
 20
64.0678
 30
6.67376
 10
102.324
 20
65.3206
 30
7.72249
 10
102.904
 20
66.3646
 30
8.59961
  0
SPLINE
  5
B08
330
A02
100
AcDbEntity
  8
ShapeString
100
AcDbSpline
210
0
220
0
230
1
 70
8
 71
2
 72
6
 73
3
 74
0
 40
0
 40
0
 40
0
 40
1
 40
1
 40
1
 10
100.433
 20
60.8679
 30
3.56571
 10
101.184
 20
63.1516
 30
5.85384
 10
101.623
 20
64.0678
 30
6.67376
  0
SPLINE
  5
B09
330
A02
100
AcDbEntity
  8
ShapeString
100
AcDbSpline
210
0
220
0
230
1
 70
8
 71
2
 72
6
 73
3
 74
0
 40
0
 40
0
 40
0
 40
1
 40
1
 40
1
 10
99.7496
 20
58.7928
 30
1.48732
 10
100.034
 20
59.697
 30
2.40257
 10
100.433
 20
60.8679
 30
3.56571
  0
SPLINE
  5
B0A
330
A02
100
AcDbEntity
  8
ShapeString
100
AcDbSpline
210
0
220
0
230
1
 70
8
 71
2
 72
6
 73
3
 74
0
 40
0
 40
0
 40
0
 40
1
 40
1
 40
1
 10
99.2019
 20
57.2741
 30
3.33718e-05
 10
99.4788
 20
57.9119
 30
0.591135
 10
99.7496
 20
58.7928
 30
1.48732
  0
SPLINE
  5
B0B
330
A02
100
AcDbEntity
  8
ShapeString
100
AcDbSpline
210
0
220
0
230
1
 70
8
 71
2
 72
6
 73
3
 74
0
 40
0
 40
0
 40
0
 40
1
 40
1
 40
1
 10
123.64
 20
78.1207
 30
8.33266
 10
123.539
 20
77.8309
 30
8.04665
 10
123.639
 20
77.6575
 30
7.76063
  0
SPLINE
  5
B0C
330
A02
100
AcDbEntity
  8
ShapeString
100
AcDbSpline
210
0
220
0
230
1
 70
8
 71
2
 72
6
 73
3
 74
0
 40
0
 40
0
 40
0
 40
1
 40
1
 40
1
 10
125.063
 20
80.6843
 30
10.4873
 10
124.18
 20
79.0488
 30
9.09537
 10
123.64
 20
78.1207
 30
8.33266
  0
SPLINE
  5
B0D
330
A02
100
AcDbEntity
  8
ShapeString
100
AcDbSpline
210
0
220
0
230
1
 70
8
 71
2
 72
6
 73
3
 74
0
 40
0
 40
0
 40
0
 40
1
 40
1
 40
1
 10
126.83
 20
84.0016
 30
13.3284
 10
125.92
 20
82.3197
 30
11.8983
 10
125.063
 20
80.6843
 30
10.4873
  0
SPLINE
  5
B0E
330
A02
100
AcDbEntity
  8
ShapeString
100
AcDbSpline
210
0
220
0
230
1
 70
8
 71
2
 72
6
 73
3
 74
0
 40
0
 40
0
 40
0
 40
1
 40
1
 40
1
 10
128.934
 20
87.8527
 30
16.589
 10
127.754
 20
85.7067
 30
14.7776
 10
126.83
 20
84.0016
 30
13.3284
  0
SPLINE
  5
B0F
330
A02
100
AcDbEntity
  8
ShapeString
100
AcDbSpline
210
0
220
0
230
1
 70
8
 71
2
 72
6
 73
3
 74
0
 40
0
 40
0
 40
0
 40
1
 40
1
 40
1
 10
131.57
 20
92.4117
 30
20.3454
 10
130.134
 20
90.0103
 30
18.4005
 10
128.934
 20
87.8527
 30
16.589
  0
LINE
  5
B10
330
A02
100
AcDbEntity
  8
ShapeString
100
AcDbLine
 10
139.432
 20
96.9508
 30
20.3454
 11
131.57
 21
92.4117
 31
20.3454
  0
SPLINE
  5
B11
330
A02
100
AcDbEntity
  8
ShapeString
100
AcDbSpline
210
0
220
0
230
1
 70
8
 71
2
 72
6
 73
3
 74
0
 40
0
 40
0
 40
0
 40
1
 40
1
 40
1
 10
137.294
 20
90.5054
 30
13.9005
 10
138.221
 20
93.1834
 30
16.5509
 10
139.432
 20
96.9508
 30
20.3454
  0
SPLINE
  5
B12
330
A02
100
AcDbEntity
  8
ShapeString
100
AcDbSpline
210
0
220
0
230
1
 70
8
 71
2
 72
6
 73
3
 74
0
 40
0
 40
0
 40
0
 40
1
 40
1
 40
1
 10
135.799
 20
86.0191
 30
9.41953
 10
136.361
 20
87.839
 30
11.2691
 10
137.294
 20
90.5054
 30
13.9005
  0
SPLINE
  5
B13
330
A02
100
AcDbEntity
  8
ShapeString
100
AcDbSpline
210
0
220
0
230
1
 70
8
 71
2
 72
6
 73
3
 74
0
 40
0
 40
0
 40
0
 40
1
 40
1
 40
1
 10
135.099
 20
83.1333
 30
6.34962
 10
135.23
 20
84.2107
 30
7.58902
 10
135.799
 20
86.0191
 30
9.41953
  0
SPLINE
  5
B14
330
A02
100
AcDbEntity
  8
ShapeString
100
AcDbSpline
210
0
220
0
230
1
 70
8
 71
2
 72
6
 73
3
 74
0
 40
0
 40
0
 40
0
 40
1
 40
1
 40
1
 10
135.329
 20
81.4314
 30
4.08055
 10
134.969
 20
82.0558
 30
5.11021
 10
135.099
 20
83.1333
 30
6.34962
  0
SPLINE
  5
B15
330
A02
100
AcDbEntity
  8
ShapeString
100
AcDbSpline
210
0
220
0
230
1
 70
8
 71
2
 72
6
 73
3
 74
0
 40
0
 40
0
 40
0
 40
1
 40
1
 40
1
 10
135.851
 20
80.9928
 30
3.1653
 10
135.51
 20
81.1192
 30
3.56572
 10
135.329
 20
81.4314
 30
4.08055
  0
SPLINE
  5
B16
330
A02
100
AcDbEntity
  8
ShapeString
100
AcDbSpline
210
0
220
0
230
1
 70
8
 71
2
 72
6
 73
3
 74
0
 40
0
 40
0
 40
0
 40
1
 40
1
 40
1
 10
137.984
 20
83.2109
 30
4.38564
 10
136.92
 20
81.8413
 30
3.45131
 10
135.851
 20
80.9928
 30
3.1653
  0
SPLINE
  5
B17
330
A02
100
AcDbEntity
  8
ShapeString
100
AcDbSpline
210
0
220
0
230
1
 70
8
 71
2
 72
6
 73
3
 74
0
 40
0
 40
0
 40
0
 40
1
 40
1
 40
1
 10
140.329
 20
86.6457
 30
6.95979
 10
139.041
 20
84.5921
 30
5.33903
 10
137.984
 20
83.2109
 30
4.38564
  0
SPLINE
  5
B18
330
A02
100
AcDbEntity
  8
ShapeString
100
AcDbSpline
210
0
220
0
230
1
 70
8
 71
2
 72
6
 73
3
 74
0
 40
0
 40
0
 40
0
 40
1
 40
1
 40
1
 10
141.514
 20
88.4558
 30
8.35174
 10
141.056
 20
87.7133
 30
7.76064
 10
140.329
 20
86.6457
 30
6.95979
  0
SPLINE
  5
B19
330
A02
100
AcDbEntity
  8
ShapeString
100
AcDbSpline
210
0
220
0
230
1
 70
8
 71
2
 72
6
 73
3
 74
0
 40
0
 40
0
 40
0
 40
1
 40
1
 40
1
 10
142.37
 20
89.7206
 30
9.30513
 10
141.986
 20
89.2215
 30
8.96191
 10
141.514
 20
88.4558
 30
8.35174
  0
SPLINE
  5
B1A
330
A02
100
AcDbEntity
  8
ShapeString
100
AcDbSpline
210
0
220
0
230
1
 70
8
 71
2
 72
6
 73
3
 74
0
 40
0
 40
0
 40
0
 40
1
 40
1
 40
1
 10
142.955
 20
90.1508
 30
9.41953
 10
142.693
 20
89.9995
 30
9.41953
 10
142.37
 20
89.7206
 30
9.30513
  0
SPLINE
  5
B1B
330
A02
100
AcDbEntity
  8
ShapeString
100
AcDbSpline
210
0
220
0
230
1
 70
8
 71
2
 72
6
 73
3
 74
0
 40
0
 40
0
 40
0
 40
1
 40
1
 40
1
 10
143.458
 20
90.1175
 30
9.01911
 10
143.358
 20
90.2909
 30
9.30513
 10
142.955
 20
90.1508
 30
9.41953
  0
SPLINE
  5
B1C
330
A02
100
AcDbEntity
  8
ShapeString
100
AcDbSpline
210
0
220
0
230
1
 70
8
 71
2
 72
6
 73
3
 74
0
 40
0
 40
0
 40
0
 40
1
 40
1
 40
1
 10
143.498
 20
89.9555
 30
8.7903
 10
143.478
 20
90.0828
 30
8.96191
 10
143.458
 20
90.1175
 30
9.01911
  0
SPLINE
  5
B1D
330
A02
100
AcDbEntity
  8
ShapeString
100
AcDbSpline
210
0
220
0
230
1
 70
8
 71
2
 72
6
 73
3
 74
0
 40
0
 40
0
 40
0
 40
1
 40
1
 40
1
 10
143.577
 20
89.6314
 30
8.33267
 10
143.538
 20
89.8398
 30
8.61869
 10
143.498
 20
89.9555
 30
8.7903
  0
SPLINE
  5
B1E
330
A02
100
AcDbEntity
  8
ShapeString
100
AcDbSpline
210
0
220
0
230
1
 70
8
 71
2
 72
6
 73
3
 74
0
 40
0
 40
0
 40
0
 40
1
 40
1
 40
1
 10
141.769
 20
85.9665
 30
5.09115
 10
142.747
 20
87.7644
 30
6.61657
 10
143.577
 20
89.6314
 30
8.33267
  0
SPLINE
  5
B1F
330
A02
100
AcDbEntity
  8
ShapeString
100
AcDbSpline
210
0
220
0
230
1
 70
8
 71
2
 72
6
 73
3
 74
0
 40
0
 40
0
 40
0
 40
1
 40
1
 40
1
 10
139.532
 20
82.532
 30
2.44072
 10
140.791
 20
84.1686
 30
3.56572
 10
141.769
 20
85.9665
 30
5.09115
  0
SPLINE
  5
B20
330
A02
100
AcDbEntity
  8
ShapeString
100
AcDbSpline
210
0
220
0
230
1
 70
8
 71
2
 72
6
 73
3
 74
0
 40
0
 40
0
 40
0
 40
1
 40
1
 40
1
 10
136.733
 20
79.4665
 30
0.648351
 10
138.293
 20
80.9071
 30
1.31572
 10
139.532
 20
82.532
 30
2.44072
  0
SPLINE
  5
B21
330
A02
100
AcDbEntity
  8
ShapeString
100
AcDbSpline
210
0
220
0
230
1
 70
8
 71
2
 72
6
 73
3
 74
0
 40
0
 40
0
 40
0
 40
1
 40
1
 40
1
 10
133.311
 20
76.9668
 30
4.48461e-05
 10
135.186
 20
78.0492
 30
4.54767e-05
 10
136.733
 20
79.4665
 30
0.648351
  0
SPLINE
  5
B22
330
A02
100
AcDbEntity
  8
ShapeString
100
AcDbSpline
210
0
220
0
230
1
 70
8
 71
2
 72
6
 73
3
 74
0
 40
0
 40
0
 40
0
 40
1
 40
1
 40
1
 10
128.858
 20
77.7417
 30
4.13775
 10
130.167
 20
75.4755
 30
0.400467
 10
133.311
 20
76.9668
 30
4.48461e-05
  0
SPLINE
  5
B23
330
A02
100
AcDbEntity
  8
ShapeString
100
AcDbSpline
210
0
220
0
230
1
 70
8
 71
2
 72
6
 73
3
 74
0
 40
0
 40
0
 40
0
 40
1
 40
1
 40
1
 10
128.235
 20
80.4037
 30
7.87504
 10
128.251
 20
78.7939
 30
5.87292
 10
128.858
 20
77.7417
 30
4.13775
  0
SPLINE
  5
B24
330
A02
100
AcDbEntity
  8
ShapeString
100
AcDbSpline
210
0
220
0
230
1
 70
8
 71
2
 72
6
 73
3
 74
0
 40
0
 40
0
 40
0
 40
1
 40
1
 40
1
 10
128.861
 20
83.5094
 30
11.2691
 10
128.213
 20
82.0251
 30
9.89622
 10
128.235
 20
80.4037
 30
7.87504
  0
SPLINE
  5
B25
330
A02
100
AcDbEntity
  8
ShapeString
100
AcDbSpline
210
0
220
0
230
1
 70
8
 71
2
 72
6
 73
3
 74
0
 40
0
 40
0
 40
0
 40
1
 40
1
 40
1
 10
128.7
 20
83.5089
 30
11.3835
 10
128.821
 20
83.5788
 30
11.3835
 10
128.861
 20
83.5094
 30
11.2691
  0
SPLINE
  5
B26
330
A02
100
AcDbEntity
  8
ShapeString
100
AcDbSpline
210
0
220
0
230
1
 70
8
 71
2
 72
6
 73
3
 74
0
 40
0
 40
0
 40
0
 40
1
 40
1
 40
1
 10
128.257
 20
83.1139
 30
11.2119
 10
128.579
 20
83.4391
 30
11.3835
 10
128.7
 20
83.5089
 30
11.3835
  0
SPLINE
  5
B27
330
A02
100
AcDbEntity
  8
ShapeString
100
AcDbSpline
210
0
220
0
230
1
 70
8
 71
2
 72
6
 73
3
 74
0
 40
0
 40
0
 40
0
 40
1
 40
1
 40
1
 10
126.397
 20
80.329
 30
9.09538
 10
127.617
 20
82.2203
 30
10.5636
 10
128.257
 20
83.1139
 30
11.2119
  0
SPLINE
  5
B28
330
A02
100
AcDbEntity
  8
ShapeString
100
AcDbSpline
210
0
220
0
230
1
 70
8
 71
2
 72
6
 73
3
 74
0
 40
0
 40
0
 40
0
 40
1
 40
1
 40
1
 10
125.38
 20
78.7395
 30
7.85597
 10
125.797
 20
79.3661
 30
8.33266
 10
126.397
 20
80.329
 30
9.09538
  0
SPLINE
  5
B29
330
A02
100
AcDbEntity
  8
ShapeString
100
AcDbSpline
210
0
220
0
230
1
 70
8
 71
2
 72
6
 73
3
 74
0
 40
0
 40
0
 40
0
 40
1
 40
1
 40
1
 10
124.713
 20
77.7995
 30
7.16953
 10
124.955
 20
78.1245
 30
7.39834
 10
125.38
 20
78.7395
 30
7.85597
  0
SPLINE
  5
B2A
330
A02
100
AcDbEntity
  8
ShapeString
100
AcDbSpline
210
0
220
0
230
1
 70
8
 71
2
 72
6
 73
3
 74
0
 40
0
 40
0
 40
0
 40
1
 40
1
 40
1
 10
123.639
 20
77.6575
 30
7.76063
 10
123.846
 20
77.299
 30
7.16953
 10
124.713
 20
77.7995
 30
7.16953
  0
SPLINE
  5
B2B
330
A02
100
AcDbEntity
  8
ShapeString
100
AcDbSpline
210
0
220
0
230
1
 70
8
 71
2
 72
6
 73
3
 74
0
 40
0
 40
0
 40
0
 40
1
 40
1
 40
1
 10
133.808
 20
98.6374
 30
26.4471
 10
134.907
 20
97.9919
 30
24.8644
 10
137.024
 20
99.214
 30
24.8644
  0
SPLINE
  5
B2C
330
A02
100
AcDbEntity
  8
ShapeString
100
AcDbSpline
210
0
220
0
230
1
 70
8
 71
2
 72
6
 73
3
 74
0
 40
0
 40
0
 40
0
 40
1
 40
1
 40
1
 10
133.28
 20
99.1339
 30
27.4386
 10
133.48
 20
98.787
 30
26.8666
 10
133.808
 20
98.6374
 30
26.4471
  0
SPLINE
  5
B2D
330
A02
100
AcDbEntity
  8
ShapeString
100
AcDbSpline
210
0
220
0
230
1
 70
8
 71
2
 72
6
 73
3
 74
0
 40
0
 40
0
 40
0
 40
1
 40
1
 40
1
 10
133.204
 20
100.801
 30
29.5551
 10
132.906
 20
99.7814
 30
28.5064
 10
133.28
 20
99.1339
 30
27.4386
  0
SPLINE
  5
B2E
330
A02
100
AcDbEntity
  8
ShapeString
100
AcDbSpline
210
0
220
0
230
1
 70
8
 71
2
 72
6
 73
3
 74
0
 40
0
 40
0
 40
0
 40
1
 40
1
 40
1
 10
134.424
 20
102.832
 30
31.1949
 10
133.522
 20
101.833
 30
30.6038
 10
133.204
 20
100.801
 30
29.5551
  0
SPLINE
  5
B2F
330
A02
100
AcDbEntity
  8
ShapeString
100
AcDbSpline
210
0
220
0
230
1
 70
8
 71
2
 72
6
 73
3
 74
0
 40
0
 40
0
 40
0
 40
1
 40
1
 40
1
 10
136.475
 20
104.447
 30
31.7288
 10
135.245
 20
103.737
 30
31.7288
 10
134.424
 20
102.832
 30
31.1949
  0
SPLINE
  5
B30
330
A02
100
AcDbEntity
  8
ShapeString
100
AcDbSpline
210
0
220
0
230
1
 70
8
 71
2
 72
6
 73
3
 74
0
 40
0
 40
0
 40
0
 40
1
 40
1
 40
1
 10
139.811
 20
105.094
 30
30.1462
 10
138.713
 20
105.739
 30
31.7288
 10
136.475
 20
104.447
 30
31.7288
  0
SPLINE
  5
B31
330
A02
100
AcDbEntity
  8
ShapeString
100
AcDbSpline
210
0
220
0
230
1
 70
8
 71
2
 72
6
 73
3
 74
0
 40
0
 40
0
 40
0
 40
1
 40
1
 40
1
 10
140.239
 20
104.632
 30
29.2691
 10
140.059
 20
104.944
 30
29.7839
 10
139.811
 20
105.094
 30
30.1462
  0
SPLINE
  5
B32
330
A02
100
AcDbEntity
  8
ShapeString
100
AcDbSpline
210
0
220
0
230
1
 70
8
 71
2
 72
6
 73
3
 74
0
 40
0
 40
0
 40
0
 40
1
 40
1
 40
1
 10
140.288
 20
102.918
 30
27.1144
 10
140.613
 20
103.984
 30
28.2013
 10
140.239
 20
104.632
 30
29.2691
  0
SPLINE
  5
B33
330
A02
100
AcDbEntity
  8
ShapeString
100
AcDbSpline
210
0
220
0
230
1
 70
8
 71
2
 72
6
 73
3
 74
0
 40
0
 40
0
 40
0
 40
1
 40
1
 40
1
 10
138.974
 20
100.818
 30
25.4555
 10
139.956
 20
101.863
 30
26.0466
 10
140.288
 20
102.918
 30
27.1144
  0
SPLINE
  5
B34
330
A02
100
AcDbEntity
  8
ShapeString
100
AcDbSpline
210
0
220
0
230
1
 70
8
 71
2
 72
6
 73
3
 74
0
 40
0
 40
0
 40
0
 40
1
 40
1
 40
1
 10
137.024
 20
99.214
 30
24.8644
 10
138.193
 20
99.889
 30
24.8644
 10
138.974
 20
100.818
 30
25.4555
  0
ENDSEC
  0
SECTION
  2
OBJECTS
  0
DICTIONARY
  5
F000
330
0
100
AcDbDictionary
  3
ACAD_GROUP
350
F001
  0
DICTIONARY
  5
F001
330
F000
100
AcDbDictionary
  0
ENDSEC
  0
EOF