  0
SECTION
  2
HEADER
  9
$ACADVER
  1
AC1009
  9
$INSBASE
 10
0.0
 20
0.0
 30
0.0
  9
$EXTMIN
 10
0.0
 20
0.0
 30
0.0
  9
$EXTMAX
 10
0.0
 20
0.0
 30
0.0
  0
ENDSEC
  0
SECTION
  2
TABLES
  0
TABLE
  2
VPORT
 70
0
  0
ENDTAB
  0
TABLE
  2
LTYPE
 70
1
  0
LTYPE
  2
CONTINUOUS
 70
0
  3
Solid line
 72
65
 73
0
 40
0.0
  0
ENDTAB
  0
TABLE
  2
LAYER
 70
1
  0
LAYER
  2
0
 70
64
 62
7
  6
continuous
  0
ENDTAB
  0
TABLE
  2
STYLE
 70
1
  0
STYLE
  2
STANDARD
 70
0
 40
0
 41
1.0
 50
0.0
 71
0
 42
1
 3
ARIAL.TTF
 4

  0
ENDTAB
  0
TABLE
  2
VIEW
 70
0
  0
ENDTAB
  0
ENDSEC
  0
SECTION
  2
BLOCKS
  0
BLOCK
  8
0
  2
CUT003
 70
0
 10
0.0
 20
0.0
 30
0.0
  3
CUT003
  0
LINE
  8
0
 62
0
 10
0.0
 20
135.29399999999998
 30
0.0
 11
121.412
 21
135.29399999999998
 31
0.0
  0
LINE
  8
0
 62
0
 10
121.412
 20
2.75
 30
0.0
 11
121.412
 21
135.29399999999998
 31
0.0
  0
LINE
  8
0
 62
0
 10
0.0
 20
2.75
 30
0.0
 11
0.0
 21
135.29399999999998
 31
0.0
  0
LINE
  8
0
 62
0
 10
0.0
 20
2.75
 30
0.0
 11
121.412
 21
2.75
 31
0.0
  0
CIRCLE
  8
0
 62
0
 10
104.16
 20
85.64
 30
0.0
 40
3.57187
  0
CIRCLE
  8
0
 62
0
 10
77.46
 20
102.15
 30
0.0
 40
3.57187
  0
CIRCLE
  8
0
 62
0
 10
77.46
 20
80.936
 30
0.0
 40
3.175
  0
CIRCLE
  8
0
 62
0
 10
104.16
 20
118.66
 30
0.0
 40
3.57187
  0
CIRCLE
  8
0
 62
0
 10
30.22
 20
121.83
 30
0.0
 40
3.96875
  0
CIRCLE
  8
0
 62
0
 10
77.464
 20
123.74000000000001
 30
0.0
 40
3.175
  0
CIRCLE
  8
0
 62
0
 10
30.22
 20
102.15
 30
0.0
 40
5.95312
  0
CIRCLE
  8
0
 62
0
 10
77.46
 20
35.9
 30
0.0
 40
3.57187
  0
CIRCLE
  8
0
 62
0
 10
104.16
 20
52.41
 30
0.0
 40
3.57187
  0
CIRCLE
  8
0
 62
0
 10
30.22
 20
35.9
 30
0.0
 40
5.95312
  0
CIRCLE
  8
0
 62
0
 10
30.22
 20
55.58
 30
0.0
 40
3.96875
  0
CIRCLE
  8
0
 62
0
 10
104.16
 20
19.39
 30
0.0
 40
3.57187
  0
ENDBLK
  0
ENDSEC
  0
SECTION
  2
ENTITIES
  0
INSERT
  2
CUT003
  8
0
 62
0
 10
0.0
 20
0.0
 30
0.0
  0
ENDSEC
  0
EOF
